  0
SECTION
  2
HEADER
  9
$ACADVER
  1
AC1014
  9
$ACADMAINTVER
 70
     5
  9
$DWGCODEPAGE
  3
ANSI_1252
  9
$INSBASE
 10
0.0
 20
0.0
 30
0.0
  9
$EXTMIN
 10
1.000000000000000E+20
 20
1.000000000000000E+20
 30
1.000000000000000E+20
  9
$EXTMAX
 10
-1.000000000000000E+20
 20
-1.000000000000000E+20
 30
-1.000000000000000E+20
  9
$LIMMIN
 10
0.0
 20
0.0
  9
$LIMMAX
 10
12.0
 20
9.0
  9
$ORTHOMODE
 70
     0
  9
$REGENMODE
 70
     1
  9
$FILLMODE
 70
     1
  9
$QTEXTMODE
 70
     0
  9
$MIRRTEXT
 70
     1
  9
$DRAGMODE
 70
     2
  9
$LTSCALE
 40
1.0
  9
$OSMODE
 70
     0
  9
$ATTMODE
 70
     0
  9
$TEXTSIZE
 40
112.3227092126054
  9
$TRACEWID
 40
0.05
  9
$TEXTSTYLE
  7
STANDARD
  9
$CLAYER
  8
0
  9
$CELTYPE
  6
BYLAYER
  9
$CECOLOR
 62
   256
  9
$CELTSCALE
 40
1.0
  9
$DELOBJ
 70
     1
  9
$DISPSILH
 70
     0
  9
$DIMSCALE
 40
1.0
  9
$DIMASZ
 40
0.18
  9
$DIMEXO
 40
0.0625
  9
$DIMDLI
 40
0.38
  9
$DIMRND
 40
0.0
  9
$DIMDLE
 40
0.0
  9
$DIMEXE
 40
0.18
  9
$DIMTP
 40
0.0
  9
$DIMTM
 40
0.0
  9
$DIMTXT
 40
0.442215390600809
  9
$DIMCEN
 40
0.09
  9
$DIMTSZ
 40
0.0
  9
$DIMTOL
 70
     0
  9
$DIMLIM
 70
     0
  9
$DIMTIH
 70
     1
  9
$DIMTOH
 70
     1
  9
$DIMSE1
 70
     0
  9
$DIMSE2
 70
     0
  9
$DIMTAD
 70
     0
  9
$DIMZIN
 70
     0
  9
$DIMBLK
  1

  9
$DIMASO
 70
     1
  9
$DIMSHO
 70
     1
  9
$DIMPOST
  1

  9
$DIMAPOST
  1

  9
$DIMALT
 70
     0
  9
$DIMALTD
 70
     2
  9
$DIMALTF
 40
25.4
  9
$DIMLFAC
 40
1.0
  9
$DIMTOFL
 70
     0
  9
$DIMTVP
 40
0.0
  9
$DIMTIX
 70
     0
  9
$DIMSOXD
 70
     0
  9
$DIMSAH
 70
     0
  9
$DIMBLK1
  1

  9
$DIMBLK2
  1

  9
$DIMSTYLE
  2
STANDARD
  9
$DIMCLRD
 70
     0
  9
$DIMCLRE
 70
     0
  9
$DIMCLRT
 70
     0
  9
$DIMTFAC
 40
1.0
  9
$DIMGAP
 40
0.09
  9
$DIMJUST
 70
     0
  9
$DIMSD1
 70
     0
  9
$DIMSD2
 70
     0
  9
$DIMTOLJ
 70
     1
  9
$DIMTZIN
 70
     0
  9
$DIMALTZ
 70
     0
  9
$DIMALTTZ
 70
     0
  9
$DIMFIT
 70
     3
  9
$DIMUPT
 70
     0
  9
$DIMUNIT
 70
     4
  9
$DIMDEC
 70
    -1
  9
$DIMTDEC
 70
     4
  9
$DIMALTU
 70
     2
  9
$DIMALTTD
 70
     2
  9
$DIMTXSTY
  7
STANDARD
  9
$DIMAUNIT
 70
     1
  9
$LUNITS
 70
     2
  9
$LUPREC
 70
     0
  9
$SKETCHINC
 40
0.1
  9
$FILLETRAD
 40
25.0
  9
$AUNITS
 70
     0
  9
$AUPREC
 70
     2
  9
$MENU
  1
.
  9
$ELEVATION
 40
0.0
  9
$PELEVATION
 40
0.0
  9
$THICKNESS
 40
0.0
  9
$LIMCHECK
 70
     0
  9
$BLIPMODE
 70
     0
  9
$CHAMFERA
 40
0.9999999999999998
  9
$CHAMFERB
 40
0.9999999999999998
  9
$CHAMFERC
 40
0.0
  9
$CHAMFERD
 40
0.0
  9
$SKPOLY
 70
     0
  9
$TDCREATE
 40
0.0000000000
  9
$TDUPDATE
 40
0.0000000000
  9
$TDINDWG
 40
0.0000000000
  9
$TDUSRTIMER
 40
0.0000000000
  9
$USRTIMER
 70
     1
  9
$ANGBASE
 50
0.0
  9
$ANGDIR
 70
     0
  9
$PDMODE
 70
     0
  9
$PDSIZE
 40
0.0
  9
$PLINEWID
 40
0.0
  9
$COORDS
 70
     1
  9
$SPLFRAME
 70
     0
  9
$SPLINETYPE
 70
     6
  9
$SPLINESEGS
 70
     8
  9
$ATTDIA
 70
     0
  9
$ATTREQ
 70
     1
  9
$HANDLING
 70
     1
  9
$HANDSEED
  5
10B
  9
$SURFTAB1
 70
     6
  9
$SURFTAB2
 70
     6
  9
$SURFTYPE
 70
     6
  9
$SURFU
 70
     6
  9
$SURFV
 70
     6
  9
$UCSNAME
  2

  9
$UCSORG
 10
0.0
 20
0.0
 30
0.0
  9
$UCSXDIR
 10
1.0
 20
0.0
 30
0.0
  9
$UCSYDIR
 10
0.0
 20
1.0
 30
0.0
  9
$PUCSNAME
  2

  9
$PUCSORG
 10
0.0
 20
0.0
 30
0.0
  9
$PUCSXDIR
 10
1.0
 20
0.0
 30
0.0
  9
$PUCSYDIR
 10
0.0
 20
1.0
 30
0.0
  9
$USERI1
 70
     0
  9
$USERI2
 70
     0
  9
$USERI3
 70
     0
  9
$USERI4
 70
     0
  9
$USERI5
 70
     0
  9
$USERR1
 40
0.0
  9
$USERR2
 40
0.0
  9
$USERR3
 40
0.0
  9
$USERR4
 40
0.0
  9
$USERR5
 40
0.0
  9
$WORLDVIEW
 70
     1
  9
$SHADEDGE
 70
     3
  9
$SHADEDIF
 70
    70
  9
$TILEMODE
 70
     1
  9
$MAXACTVP
 70
    48
  9
$PINSBASE
 10
0.0
 20
0.0
 30
0.0
  9
$PLIMCHECK
 70
     0
  9
$PEXTMIN
 10
1.000000000000000E+20
 20
1.000000000000000E+20
 30
1.000000000000000E+20
  9
$PEXTMAX
 10
-1.000000000000000E+20
 20
-1.000000000000000E+20
 30
-1.000000000000000E+20
  9
$PLIMMIN
 10
0.0
 20
0.0
  9
$PLIMMAX
 10
12.0
 20
9.0
  9
$UNITMODE
 70
     0
  9
$VISRETAIN
 70
     1
  9
$PLINEGEN
 70
     0
  9
$PSLTSCALE
 70
     1
  9
$TREEDEPTH
 70
  3020
  9
$PICKSTYLE
 70
     1
  9
$CMLSTYLE
  2
STANDARD
  9
$CMLJUST
 70
     0
  9
$CMLSCALE
 40
1.0
  9
$PROXYGRAPHICS
 70
     1
  9
$MEASUREMENT
 70
     0
  0
ENDSEC
  0
SECTION
  2
CLASSES
  0
CLASS
  1
DICTIONARYVAR
  2
AcDbDictionaryVar
  3
"AutoCAD"
 90
        0
280
     0
281
     0
  0
ENDSEC
  0
SECTION
  2
TABLES
  0
TABLE
  2
VPORT
  5
8
100
AcDbSymbolTable
 70
     1
  0
VPORT
  5
11
100
AcDbSymbolTableRecord
100
AcDbViewportTableRecord
  2
*ACTIVE
 70
     0
 10
0.0
 20
0.0
 11
1.0
 21
1.0
 12
3.6
 22
4.5
 13
0.0
 23
0.0
 14
1.0
 24
1.0
 15
0.0
 25
0.0
 16
0.0
 26
0.0
 36
1.0
 17
0.0
 27
0.0
 37
0.0
 40
15.0
 41
0.8
 42
50.0
 43
0.0
 44
0.0
 50
0.0
 51
0.0
 71
     0
 72
   100
 73
     1
 74
     1
 75
     0
 76
     0
 77
     0
 78
     0
  0
ENDTAB
  0
TABLE
  2
LTYPE
  5
5
100
AcDbSymbolTable
 70
    40
  0
LTYPE
  5
12
100
AcDbSymbolTableRecord
100
AcDbLinetypeTableRecord
  2
BYBLOCK
 70
     0
  3

 72
    65
 73
     0
 40
0.0
  0
LTYPE
  5
13
100
AcDbSymbolTableRecord
100
AcDbLinetypeTableRecord
  2
BYLAYER
 70
     0
  3

 72
    65
 73
     0
 40
0.0
  0
LTYPE
  5
14
100
AcDbSymbolTableRecord
100
AcDbLinetypeTableRecord
  2
CONTINUOUS
 70
     0
  3
Solid line
 72
    65
 73
     0
 40
0.0
  0
LTYPE
  5
20
100
AcDbSymbolTableRecord
100
AcDbLinetypeTableRecord
  2
HIDDEN
 70
     0
  3
_ _ _ _ _ _ _ _ _ _ _ _ _ _ 
 72
    65
 73
     2
 40
9.524999999999998
 49
6.349999999999999
 74
     0
 49
-3.174999999999999
 74
     0
  0
LTYPE
  5
21
100
AcDbSymbolTableRecord
100
AcDbLinetypeTableRecord
  2
DASHED
 70
     0
  3
__ __ __ __ __ __ __ __ __ 
 72
    65
 73
     2
 40
19.04999999999999
 49
12.7
 74
     0
 49
-6.349999999999999
 74
     0
  0
LTYPE
  5
22
100
AcDbSymbolTableRecord
100
AcDbLinetypeTableRecord
  2
CENTER
 70
     0
  3
____ _ ____ _ ____ _ ____ _ 
 72
    65
 73
     4
 40
50.8
 49
31.75
 74
     0
 49
-6.349999999999999
 74
     0
 49
6.349999999999999
 74
     0
 49
-6.349999999999999
 74
     0
  0
LTYPE
  5
23
100
AcDbSymbolTableRecord
100
AcDbLinetypeTableRecord
  2
PHANTOM
 70
     0
  3
_____ _ _ _____ _ _ _____ _ _ 
 72
    65
 73
     6
 40
63.50000000000001
 49
31.75
 74
     0
 49
-6.349999999999999
 74
     0
 49
6.349999999999999
 74
     0
 49
-6.349999999999999
 74
     0
 49
6.349999999999999
 74
     0
 49
-6.349999999999999
 74
     0
  0
LTYPE
  5
24
100
AcDbSymbolTableRecord
100
AcDbLinetypeTableRecord
  2
DOT
 70
     0
  3
...........................
 72
    65
 73
     2
 40
6.349999999999999
 49
0.0
 74
     0
 49
-6.349999999999999
 74
     0
  0
LTYPE
  5
25
100
AcDbSymbolTableRecord
100
AcDbLinetypeTableRecord
  2
DASHDOT
 70
     0
  3
__ . __ . __ . __ . __ . __ . 
 72
    65
 73
     4
 40
25.4
 49
12.7
 74
     0
 49
-6.349999999999999
 74
     0
 49
0.0
 74
     0
 49
-6.349999999999999
 74
     0
  0
LTYPE
  5
26
100
AcDbSymbolTableRecord
100
AcDbLinetypeTableRecord
  2
DIVIDE
 70
     0
  3
__ . . __ . . __ . . __ . . 
 72
    65
 73
     6
 40
31.75
 49
12.7
 74
     0
 49
-6.349999999999999
 74
     0
 49
0.0
 74
     0
 49
-6.349999999999999
 74
     0
 49
0.0
 74
     0
 49
-6.349999999999999
 74
     0
  0
LTYPE
  5
27
100
AcDbSymbolTableRecord
100
AcDbLinetypeTableRecord
  2
BORDER
 70
     0
  3
__ __ . __ __ . __ __ . __ __ .
 72
    65
 73
     6
 40
44.44999999999999
 49
12.7
 74
     0
 49
-6.349999999999999
 74
     0
 49
12.7
 74
     0
 49
-6.349999999999999
 74
     0
 49
0.0
 74
     0
 49
-6.349999999999999
 74
     0
  0
LTYPE
  5
28
100
AcDbSymbolTableRecord
100
AcDbLinetypeTableRecord
  2
BORDER2
 70
     0
  3
Border (.5x) __.__.__.__.__.__.
 72
    65
 73
     6
 40
0.875
 49
0.25
 74
     0
 49
-0.125
 74
     0
 49
0.25
 74
     0
 49
-0.125
 74
     0
 49
0.0
 74
     0
 49
-0.125
 74
     0
  0
LTYPE
  5
29
100
AcDbSymbolTableRecord
100
AcDbLinetypeTableRecord
  2
BORDERX2
 70
     0
  3
Border (2x) ____  ____  .  ____
 72
    65
 73
     6
 40
3.5
 49
1.0
 74
     0
 49
-0.5
 74
     0
 49
1.0
 74
     0
 49
-0.5
 74
     0
 49
0.0
 74
     0
 49
-0.5
 74
     0
  0
LTYPE
  5
2A
100
AcDbSymbolTableRecord
100
AcDbLinetypeTableRecord
  2
CENTER2
 70
     0
  3
Center (.5x) ___ _ ___ _ ___ _ 
 72
    65
 73
     4
 40
1.125
 49
0.75
 74
     0
 49
-0.125
 74
     0
 49
0.125
 74
     0
 49
-0.125
 74
     0
  0
LTYPE
  5
2B
100
AcDbSymbolTableRecord
100
AcDbLinetypeTableRecord
  2
CENTERX2
 70
     0
  3
Center (2x) ________  __  _____
 72
    65
 73
     4
 40
4.0
 49
2.5
 74
     0
 49
-0.5
 74
     0
 49
0.5
 74
     0
 49
-0.5
 74
     0
  0
LTYPE
  5
2C
100
AcDbSymbolTableRecord
100
AcDbLinetypeTableRecord
  2
DASHDOT2
 70
     0
  3
Dash dot (.5x) _._._._._._._._.
 72
    65
 73
     4
 40
0.5
 49
0.25
 74
     0
 49
-0.125
 74
     0
 49
0.0
 74
     0
 49
-0.125
 74
     0
  0
LTYPE
  5
2D
100
AcDbSymbolTableRecord
100
AcDbLinetypeTableRecord
  2
DASHDOTX2
 70
     0
  3
Dash dot (2x) ____  .  ____  . 
 72
    65
 73
     4
 40
2.0
 49
1.0
 74
     0
 49
-0.5
 74
     0
 49
0.0
 74
     0
 49
-0.5
 74
     0
  0
LTYPE
  5
2E
100
AcDbSymbolTableRecord
100
AcDbLinetypeTableRecord
  2
DASHED2
 70
     0
  3
Dashed (.5x) _ _ _ _ _ _ _ _ _ 
 72
    65
 73
     2
 40
0.375
 49
0.25
 74
     0
 49
-0.125
 74
     0
  0
LTYPE
  5
2F
100
AcDbSymbolTableRecord
100
AcDbLinetypeTableRecord
  2
DASHEDX2
 70
     0
  3
Dashed (2x) ____  ____  ____  _
 72
    65
 73
     2
 40
1.5
 49
1.0
 74
     0
 49
-0.5
 74
     0
  0
LTYPE
  5
30
100
AcDbSymbolTableRecord
100
AcDbLinetypeTableRecord
  2
DIVIDE2
 70
     0
  3
Divide (.5x) __..__..__..__..__
 72
    65
 73
     6
 40
0.625
 49
0.25
 74
     0
 49
-0.125
 74
     0
 49
0.0
 74
     0
 49
-0.125
 74
     0
 49
0.0
 74
     0
 49
-0.125
 74
     0
  0
LTYPE
  5
31
100
AcDbSymbolTableRecord
100
AcDbLinetypeTableRecord
  2
DIVIDEX2
 70
     0
  3
Divide (2x) ________  .  .  ___
 72
    65
 73
     6
 40
2.5
 49
1.0
 74
     0
 49
-0.5
 74
     0
 49
0.0
 74
     0
 49
-0.5
 74
     0
 49
0.0
 74
     0
 49
-0.5
 74
     0
  0
LTYPE
  5
32
100
AcDbSymbolTableRecord
100
AcDbLinetypeTableRecord
  2
DOT2
 70
     0
  3
Dot (.5x) .....................
 72
    65
 73
     2
 40
0.125
 49
0.0
 74
     0
 49
-0.125
 74
     0
  0
LTYPE
  5
33
100
AcDbSymbolTableRecord
100
AcDbLinetypeTableRecord
  2
DOTX2
 70
     0
  3
Dot (2x) .  .  .  .  .  .  .  .
 72
    65
 73
     2
 40
0.5
 49
0.0
 74
     0
 49
-0.5
 74
     0
  0
LTYPE
  5
34
100
AcDbSymbolTableRecord
100
AcDbLinetypeTableRecord
  2
HIDDEN2
 70
     0
  3
Hidden (.5x) _ _ _ _ _ _ _ _ _ 
 72
    65
 73
     2
 40
0.1875
 49
0.125
 74
     0
 49
-0.0625
 74
     0
  0
LTYPE
  5
35
100
AcDbSymbolTableRecord
100
AcDbLinetypeTableRecord
  2
HIDDENX2
 70
     0
  3
Hidden (2x) ____ ____ ____ ____
 72
    65
 73
     2
 40
0.75
 49
0.5
 74
     0
 49
-0.25
 74
     0
  0
LTYPE
  5
36
100
AcDbSymbolTableRecord
100
AcDbLinetypeTableRecord
  2
PHANTOM2
 70
     0
  3
Phantom (.5x) ___ _ _ ___ _ _ _
 72
    65
 73
     6
 40
1.25
 49
0.625
 74
     0
 49
-0.125
 74
     0
 49
0.125
 74
     0
 49
-0.125
 74
     0
 49
0.125
 74
     0
 49
-0.125
 74
     0
  0
LTYPE
  5
37
100
AcDbSymbolTableRecord
100
AcDbLinetypeTableRecord
  2
PHANTOMX2
 70
     0
  3
Phantom (2x) ____________    __
 72
    65
 73
     6
 40
5.0
 49
2.5
 74
     0
 49
-0.5
 74
     0
 49
0.5
 74
     0
 49
-0.5
 74
     0
 49
0.5
 74
     0
 49
-0.5
 74
     0
  0
LTYPE
  5
38
100
AcDbSymbolTableRecord
100
AcDbLinetypeTableRecord
  2
DOTS
 70
     0
  3
Dots - - - - - - - - - - - - - 
 72
    65
 73
     2
 40
0.1
 49
0.05
 74
     0
 49
-0.05
 74
     0
  0
LTYPE
  5
39
100
AcDbSymbolTableRecord
100
AcDbLinetypeTableRecord
  2
ACAD_ISO02W100
 70
     0
  3
__ __ __ __ __ __ __ __ __ __ _
 72
    65
 73
     2
 40
15.0
 49
12.0
 74
     0
 49
-3.0
 74
     0
  0
LTYPE
  5
3A
100
AcDbSymbolTableRecord
100
AcDbLinetypeTableRecord
  2
ACAD_ISO03W100
 70
     0
  3
__    __    __    __    __    _
 72
    65
 73
     2
 40
30.0
 49
12.0
 74
     0
 49
-18.0
 74
     0
  0
LTYPE
  5
3B
100
AcDbSymbolTableRecord
100
AcDbLinetypeTableRecord
  2
ACAD_ISO04W100
 70
     0
  3
____ . ____ . ____ . ____ . ___
 72
    65
 73
     4
 40
30.5
 49
24.0
 74
     0
 49
-3.0
 74
     0
 49
0.5
 74
     0
 49
-3.0
 74
     0
  0
LTYPE
  5
3C
100
AcDbSymbolTableRecord
100
AcDbLinetypeTableRecord
  2
ACAD_ISO05W100
 70
     0
  3
____ .. ____ .. ____ .. ____ ..
 72
    65
 73
     6
 40
34.0
 49
24.0
 74
     0
 49
-3.0
 74
     0
 49
0.5
 74
     0
 49
-3.0
 74
     0
 49
0.5
 74
     0
 49
-3.0
 74
     0
  0
LTYPE
  5
3D
100
AcDbSymbolTableRecord
100
AcDbLinetypeTableRecord
  2
ACAD_ISO06W100
 70
     0
  3
____ ... ____ ... ____ ... ____
 72
    65
 73
     6
 40
34.0
 49
24.0
 74
     0
 49
-3.0
 74
     0
 49
0.5
 74
     0
 49
-3.0
 74
     0
 49
0.5
 74
     0
 49
-3.0
 74
     0
  0
LTYPE
  5
3E
100
AcDbSymbolTableRecord
100
AcDbLinetypeTableRecord
  2
ACAD_ISO07W100
 70
     0
  3
. . . . . . . . . . . . . . . .
 72
    65
 73
     2
 40
3.5
 49
0.5
 74
     0
 49
-3.0
 74
     0
  0
LTYPE
  5
3F
100
AcDbSymbolTableRecord
100
AcDbLinetypeTableRecord
  2
ACAD_ISO08W100
 70
     0
  3
____ __ ____ __ ____ __ ____ __
 72
    65
 73
     4
 40
36.0
 49
24.0
 74
     0
 49
-3.0
 74
     0
 49
6.0
 74
     0
 49
-3.0
 74
     0
  0
LTYPE
  5
40
100
AcDbSymbolTableRecord
100
AcDbLinetypeTableRecord
  2
ACAD_ISO09W100
 70
     0
  3
____ __ __ ____ __ __ ____ __ _
 72
    65
 73
     6
 40
45.0
 49
24.0
 74
     0
 49
-3.0
 74
     0
 49
6.0
 74
     0
 49
-3.0
 74
     0
 49
6.0
 74
     0
 49
-3.0
 74
     0
  0
LTYPE
  5
41
100
AcDbSymbolTableRecord
100
AcDbLinetypeTableRecord
  2
ACAD_ISO10W100
 70
     0
  3
__ . __ . __ . __ . __ . __ . _
 72
    65
 73
     4
 40
18.5
 49
12.0
 74
     0
 49
-3.0
 74
     0
 49
0.5
 74
     0
 49
-3.0
 74
     0
  0
LTYPE
  5
42
100
AcDbSymbolTableRecord
100
AcDbLinetypeTableRecord
  2
ACAD_ISO11W100
 70
     0
  3
__ __ . __ __ . __ __ . __ __ .
 72
    65
 73
     6
 40
33.5
 49
12.0
 74
     0
 49
-3.0
 74
     0
 49
12.0
 74
     0
 49
-3.0
 74
     0
 49
0.5
 74
     0
 49
-3.0
 74
     0
  0
LTYPE
  5
43
100
AcDbSymbolTableRecord
100
AcDbLinetypeTableRecord
  2
ACAD_ISO12W100
 70
     0
  3
__ . . __ . . __ . . __ . . __ 
 72
    65
 73
     6
 40
22.0
 49
12.0
 74
     0
 49
-3.0
 74
     0
 49
0.5
 74
     0
 49
-3.0
 74
     0
 49
0.5
 74
     0
 49
-3.0
 74
     0
  0
LTYPE
  5
44
100
AcDbSymbolTableRecord
100
AcDbLinetypeTableRecord
  2
ACAD_ISO13W100
 70
     0
  3
__ __ . . __ __ . . __ __ . . _
 72
    65
 73
     6
 40
33.5
 49
12.0
 74
     0
 49
-3.0
 74
     0
 49
12.0
 74
     0
 49
-3.0
 74
     0
 49
0.5
 74
     0
 49
-3.0
 74
     0
  0
LTYPE
  5
45
100
AcDbSymbolTableRecord
100
AcDbLinetypeTableRecord
  2
ACAD_ISO14W100
 70
     0
  3
__ . . . __ . . . __ . . . __ .
 72
    65
 73
     6
 40
22.0
 49
12.0
 74
     0
 49
-3.0
 74
     0
 49
0.5
 74
     0
 49
-3.0
 74
     0
 49
0.5
 74
     0
 49
-3.0
 74
     0
  0
LTYPE
  5
46
100
AcDbSymbolTableRecord
100
AcDbLinetypeTableRecord
  2
ACAD_ISO15W100
 70
     0
  3
__ __ . . . __ __ . . . __ __ .
 72
    65
 73
     6
 40
33.5
 49
12.0
 74
     0
 49
-3.0
 74
     0
 49
12.0
 74
     0
 49
-3.0
 74
     0
 49
0.5
 74
     0
 49
-3.0
 74
     0
  0
ENDTAB
  0
TABLE
  2
LAYER
  5
2
100
AcDbSymbolTable
 70
     3
  0
LAYER
  5
E
100
AcDbSymbolTableRecord
100
AcDbLayerTableRecord
  2
0
 70
     0
 62
     7
  6
CONTINUOUS
  0
LAYER
  5
47
100
AcDbSymbolTableRecord
100
AcDbLayerTableRecord
  2
COMMENTS
 70
     0
 62
    94
  6
CONTINUOUS
  0
LAYER
  5
48
100
AcDbSymbolTableRecord
100
AcDbLayerTableRecord
  2
HOLDERS
 70
     0
 62
     7
  6
CONTINUOUS
  0
ENDTAB
  0
TABLE
  2
STYLE
  5
3
100
AcDbSymbolTable
 70
     5
  0
STYLE
  5
F
100
AcDbSymbolTableRecord
100
AcDbTextStyleTableRecord
  2
STANDARD
 70
     0
 40
0.0
 41
1.0
 50
0.0
 71
     0
 42
112.3227092126054
  3
txt
  4

  0
STYLE
  5
49
100
AcDbSymbolTableRecord
100
AcDbTextStyleTableRecord
  2
ITALIC
 70
     0
 40
0.0
 41
1.0
 50
0.0
 71
     0
 42
112.3227092126054
  3
ITALIC
  4

  0
STYLE
  5
4A
100
AcDbSymbolTableRecord
100
AcDbTextStyleTableRecord
  2
SIMPLEX
 70
     0
 40
0.0
 41
1.0
 50
0.0
 71
     0
 42
112.3227092126054
  3
SIMPLEX
  4

  0
STYLE
  5
4B
100
AcDbSymbolTableRecord
100
AcDbTextStyleTableRecord
  2
COMPLEX
 70
     0
 40
0.0
 41
1.0
 50
0.0
 71
     0
 42
112.3227092126054
  3
COMPLEX
  4

  0
STYLE
  5
72
100
AcDbSymbolTableRecord
100
AcDbTextStyleTableRecord
  2
ARIAL
 70
     0
 40
0.0
 41
1.0
 50
0.0
 71
     0
 42
112.3227092126054
  3
ARIAL.TTF
  4

1001
ACAD
1000
Arial
1071
        0
  0
ENDTAB
  0
TABLE
  2
VIEW
  5
6
100
AcDbSymbolTable
 70
     0
  0
ENDTAB
  0
TABLE
  2
UCS
  5
7
100
AcDbSymbolTable
 70
     0
  0
ENDTAB
  0
TABLE
  2
APPID
  5
9
100
AcDbSymbolTable
 70
     1
  0
APPID
  5
10
100
AcDbSymbolTableRecord
100
AcDbRegAppTableRecord
  2
ACAD
 70
     0
  0
ENDTAB
  0
TABLE
  2
DIMSTYLE
  5
A
100
AcDbSymbolTable
 70
     1
  0
DIMSTYLE
105
1D
100
AcDbSymbolTableRecord
100
AcDbDimStyleTableRecord
  2
STANDARD
 70
     0
  3

  4

  5

  6

  7

 40
1.0
 41
0.18
 42
0.0625
 43
0.38
 44
0.18
 45
0.0
 46
0.0
 47
0.0
 48
0.0
140
0.18
141
0.09
142
0.0
143
25.4
144
1.0
145
0.0
146
1.0
147
0.09
 71
     0
 72
     0
 73
     1
 74
     1
 75
     0
 76
     0
 77
     0
 78
     0
170
     0
171
     2
172
     0
173
     0
174
     0
175
     0
176
     0
177
     0
178
     0
270
     2
271
     4
272
     4
273
     2
274
     2
340
F
275
     0
280
     0
281
     0
282
     0
283
     1
284
     0
285
     0
286
     0
287
     3
288
     0
  0
ENDTAB
  0
TABLE
  2
BLOCK_RECORD
  5
1
100
AcDbSymbolTable
 70
     0
  0
BLOCK_RECORD
  5
18
100
AcDbSymbolTableRecord
100
AcDbBlockTableRecord
  2
*MODEL_SPACE
  0
BLOCK_RECORD
  5
15
100
AcDbSymbolTableRecord
100
AcDbBlockTableRecord
  2
*PAPER_SPACE
  0
ENDTAB
  0
ENDSEC
  0
SECTION
  2
BLOCKS
  0
BLOCK
  5
19
100
AcDbEntity
  8
0
100
AcDbBlockBegin
  2
*MODEL_SPACE
 70
     0
 10
0.0
 20
0.0
 30
0.0
  3
*MODEL_SPACE
  1

  0
ENDBLK
  5
1A
100
AcDbEntity
  8
0
100
AcDbBlockEnd
  0
BLOCK
  5
16
100
AcDbEntity
 67
     1
  8
0
100
AcDbBlockBegin
  2
*PAPER_SPACE
 70
     0
 10
0.0
 20
0.0
 30
0.0
  3
*PAPER_SPACE
  1

  0
ENDBLK
  5
17
100
AcDbEntity
 67
     1
  8
0
100
AcDbBlockEnd
  0
ENDSEC
  0
SECTION
  2
ENTITIES
  0
LINE
  5
4C
100
AcDbEntity
  8
HOLDERS
  6
CONTINUOUS
 62
     7
100
AcDbLine
 10
15364.55037814384
 20
4466.173069025827
 30
0.0
 11
15614.55037814374
 21
4466.173069025808
 31
0.0
  0
LINE
  5
4D
100
AcDbEntity
  8
HOLDERS
  6
CONTINUOUS
 62
     7
100
AcDbLine
 10
15364.55037814384
 20
4496.173069025799
 30
0.0
 11
15614.55037814374
 21
4496.173069025807
 31
0.0
  0
LINE
  5
4E
100
AcDbEntity
  8
HOLDERS
  6
CONTINUOUS
 62
     7
100
AcDbLine
 10
15364.55037814384
 20
4353.132493320889
 30
0.0
 11
15614.55037814374
 21
4353.132493320891
 31
0.0
  0
ARC
  5
4F
100
AcDbEntity
  8
HOLDERS
  6
CONTINUOUS
 62
     7
100
AcDbCircle
 10
15445.05037814374
 20
4385.418207606604
 30
0.0
 40
21.28571428571154
100
AcDbArc
 50
200.0159596028797
 51
339.9840403971218
  0
LINE
  5
50
100
AcDbEntity
  8
HOLDERS
  6
CONTINUOUS
 62
     7
100
AcDbLine
 10
15364.55037814374
 20
4353.132493320891
 30
0.0
 11
15364.55037814374
 21
4378.132493320891
 31
0.0
  0
LINE
  5
51
100
AcDbEntity
  8
HOLDERS
  6
CONTINUOUS
 62
     7
100
AcDbLine
 10
15364.55037814374
 20
4496.173069025807
 30
0.0
 11
15364.55037814374
 21
4466.173069025808
 31
0.0
  0
LINE
  5
52
100
AcDbEntity
  8
HOLDERS
  6
CONTINUOUS
 62
     7
100
AcDbLine
 10
15364.55037814384
 20
4488.173069025832
 30
0.0
 11
15386.55037814374
 21
4488.173069025807
 31
0.0
  0
LINE
  5
53
100
AcDbEntity
  8
HOLDERS
  6
CONTINUOUS
 62
     7
100
AcDbLine
 10
15364.55037814384
 20
4474.173069025924
 30
0.0
 11
15386.55037814374
 21
4474.173069025807
 31
0.0
  0
LINE
  5
54
100
AcDbEntity
  8
HOLDERS
  6
CONTINUOUS
 62
     7
100
AcDbLine
 10
15386.55037814374
 20
4474.173069025807
 30
0.0
 11
15386.55037814374
 21
4488.173069025807
 31
0.0
  0
LINE
  5
55
100
AcDbEntity
  8
HOLDERS
  6
CONTINUOUS
 62
     7
100
AcDbLine
 10
15387.55037814374
 20
4496.173069025807
 30
0.0
 11
15387.55037814374
 21
4466.173069025807
 31
0.0
  0
LINE
  5
56
100
AcDbEntity
  8
HOLDERS
  6
CONTINUOUS
 62
     7
100
AcDbLine
 10
15420.05037814374
 20
4466.173069025808
 30
0.0
 11
15420.05037814374
 21
4496.173069025807
 31
0.0
  0
LINE
  5
57
100
AcDbEntity
  8
HOLDERS
  6
CONTINUOUS
 62
     7
100
AcDbLine
 10
15425.05037814374
 20
4496.173069025807
 30
0.0
 11
15425.05037814374
 21
4466.173069025808
 31
0.0
  0
CIRCLE
  5
58
100
AcDbEntity
  8
HOLDERS
  6
CONTINUOUS
 62
     7
100
AcDbCircle
 10
15374.55037814374
 20
4365.632493320891
 30
0.0
 40
5.0
  0
ARC
  5
59
100
AcDbEntity
  8
HOLDERS
  6
CONTINUOUS
 62
     7
100
AcDbCircle
 10
15403.80037814374
 20
4388.30263220978
 30
0.0
 40
19.17013888888909
100
AcDbArc
 50
212.0405846041466
 51
327.9594153958573
  0
LINE
  5
5A
100
AcDbEntity
  8
HOLDERS
  6
CONTINUOUS
 62
     7
100
AcDbLine
 10
15364.55037814384
 20
4378.132493321015
 30
0.0
 11
15387.55037814374
 21
4378.132493320901
 31
0.0
  0
LINE
  5
5B
100
AcDbEntity
  8
HOLDERS
  6
CONTINUOUS
 62
     7
100
AcDbLine
 10
15420.05037814374
 20
4378.132493320891
 30
0.0
 11
15425.05037814374
 21
4378.132493320891
 31
0.0
  0
LINE
  5
5C
100
AcDbEntity
  8
HOLDERS
  6
CONTINUOUS
 62
     7
100
AcDbLine
 10
15614.55037814374
 20
4353.132493320891
 30
0.0
 11
15614.55037814374
 21
4378.132493320891
 31
0.0
  0
LINE
  5
5D
100
AcDbEntity
  8
HOLDERS
  6
DOT
 62
     7
100
AcDbLine
 10
15606.55037814374
 20
4353.132493320891
 30
0.0
 11
15606.55037814374
 21
4377.132493320891
 31
0.0
  0
LINE
  5
5E
100
AcDbEntity
  8
HOLDERS
  6
DOT
 62
     7
100
AcDbLine
 10
15598.55037814374
 20
4353.132493320891
 30
0.0
 11
15598.55037814374
 21
4377.132493320891
 31
0.0
  0
ARC
  5
5F
100
AcDbEntity
  8
HOLDERS
  6
CONTINUOUS
 62
     7
100
AcDbCircle
 10
15576.30037814374
 20
4388.30263220978
 30
0.0
 40
19.17013888888909
100
AcDbArc
 50
212.0405846041466
 51
327.9594153958573
  0
LINE
  5
60
100
AcDbEntity
  8
HOLDERS
  6
CONTINUOUS
 62
     7
100
AcDbLine
 10
15510.05037814374
 20
4496.173069025807
 30
0.0
 11
15510.05037814374
 21
4466.173069025808
 31
0.0
  0
LINE
  5
61
100
AcDbEntity
  8
HOLDERS
  6
CONTINUOUS
 62
     7
100
AcDbLine
 10
15515.05037814374
 20
4466.173069025808
 30
0.0
 11
15515.05037814374
 21
4496.173069025807
 31
0.0
  0
LINE
  5
62
100
AcDbEntity
  8
HOLDERS
  6
CONTINUOUS
 62
     7
100
AcDbLine
 10
15555.05037814374
 20
4466.173069025808
 30
0.0
 11
15555.05037814374
 21
4496.173069025807
 31
0.0
  0
LINE
  5
63
100
AcDbEntity
  8
HOLDERS
  6
CONTINUOUS
 62
     7
100
AcDbLine
 10
15560.05037814374
 20
4466.173069025808
 30
0.0
 11
15560.05037814374
 21
4496.173069025807
 31
0.0
  0
LINE
  5
64
100
AcDbEntity
  8
HOLDERS
  6
CONTINUOUS
 62
     7
100
AcDbLine
 10
15470.05037814374
 20
4466.173069025808
 30
0.0
 11
15470.05037814374
 21
4496.173069025807
 31
0.0
  0
LINE
  5
65
100
AcDbEntity
  8
HOLDERS
  6
CONTINUOUS
 62
     7
100
AcDbLine
 10
15465.05037814374
 20
4466.173069025808
 30
0.0
 11
15465.05037814374
 21
4496.173069025807
 31
0.0
  0
ARC
  5
66
100
AcDbEntity
  8
HOLDERS
  6
CONTINUOUS
 62
     7
100
AcDbCircle
 10
15490.05037814374
 20
4385.418207606604
 30
0.0
 40
21.28571428571154
100
AcDbArc
 50
200.0159596028797
 51
339.9840403971218
  0
ARC
  5
67
100
AcDbEntity
  8
HOLDERS
  6
CONTINUOUS
 62
     7
100
AcDbCircle
 10
15535.05037814374
 20
4385.418207606604
 30
0.0
 40
21.28571428571154
100
AcDbArc
 50
200.0159596028797
 51
339.9840403971218
  0
LINE
  5
68
100
AcDbEntity
  8
HOLDERS
  6
CONTINUOUS
 62
     7
100
AcDbLine
 10
15614.55037814374
 20
4466.173069025808
 30
0.0
 11
15614.55037814374
 21
4496.173069025807
 31
0.0
  0
LINE
  5
69
100
AcDbEntity
  8
HOLDERS
  6
CONTINUOUS
 62
     7
100
AcDbLine
 10
15592.55037814374
 20
4466.173069025808
 30
0.0
 11
15592.55037814374
 21
4496.173069025807
 31
0.0
  0
CIRCLE
  5
6A
100
AcDbEntity
  8
HOLDERS
  6
CONTINUOUS
 62
     7
100
AcDbCircle
 10
15602.55037814374
 20
4481.173069025808
 30
0.0
 40
5.0
  0
CIRCLE
  5
6B
100
AcDbEntity
  8
HOLDERS
  6
CONTINUOUS
 62
     7
100
AcDbCircle
 10
15602.55037814374
 20
4481.173069025808
 30
0.0
 40
3.999999999999999
  0
LINE
  5
6C
100
AcDbEntity
  8
HOLDERS
  6
DOT
 62
     7
100
AcDbLine
 10
15606.55037814374
 20
4377.132493320891
 30
0.0
 11
15607.55037814374
 21
4378.132493320891
 31
0.0
  0
LINE
  5
6D
100
AcDbEntity
  8
HOLDERS
  6
DOT
 62
     7
100
AcDbLine
 10
15598.55037814374
 20
4377.132493320891
 30
0.0
 11
15597.55037814374
 21
4378.132493320891
 31
0.0
  0
LINE
  5
6E
100
AcDbEntity
  8
HOLDERS
  6
CONTINUOUS
 62
     7
100
AcDbLine
 10
15465.05037814374
 20
4378.132493320891
 30
0.0
 11
15470.05037814374
 21
4378.132493320891
 31
0.0
  0
LINE
  5
6F
100
AcDbEntity
  8
HOLDERS
  6
CONTINUOUS
 62
     7
100
AcDbLine
 10
15510.05037814374
 20
4378.132493320891
 30
0.0
 11
15515.05037814375
 21
4378.132493320891
 31
0.0
  0
LINE
  5
70
100
AcDbEntity
  8
HOLDERS
  6
CONTINUOUS
 62
     7
100
AcDbLine
 10
15555.05037814374
 20
4378.132493320891
 30
0.0
 11
15560.05037814374
 21
4378.132493320891
 31
0.0
  0
LINE
  5
71
100
AcDbEntity
  8
HOLDERS
  6
CONTINUOUS
 62
     7
100
AcDbLine
 10
15592.55037814374
 20
4378.132493320891
 30
0.0
 11
15614.55037814374
 21
4378.132493320891
 31
0.0
  0
TEXT
  5
73
100
AcDbEntity
  8
COMMENTS
  6
CONTINUOUS
100
AcDbText
 10
15077.21079643818
 20
4396.839999565582
 30
0.0
 40
8.985816737008438
  1
The part as designed. Real examples
 41
0.6
  7
ARIAL
 11
15077.21079643818
 21
4405.82581630259
 31
0.0
100
AcDbText
 73
     3
  0
TEXT
  5
74
100
AcDbEntity
  8
COMMENTS
  6
CONTINUOUS
100
AcDbText
 10
15077.21079643818
 20
4383.361274460068
 30
-13.47872510551265
 40
8.985816737008438
  1
can vary due to careless manufacture.
 41
0.6
  7
ARIAL
 11
15077.21079643818
 21
4392.347091197078
 31
-13.47872510551265
100
AcDbText
 73
     3
  0
LINE
  5
75
100
AcDbEntity
  8
HOLDERS
  6
CONTINUOUS
 62
     7
100
AcDbLine
 10
15037.01789724586
 20
4466.173069025827
 30
0.0
 11
15287.01789724576
 21
4466.173069025808
 31
0.0
  0
LINE
  5
76
100
AcDbEntity
  8
HOLDERS
  6
CONTINUOUS
 62
     7
100
AcDbLine
 10
15037.01789724586
 20
4496.173069025799
 30
0.0
 11
15287.01789724576
 21
4496.173069025807
 31
0.0
  0
LINE
  5
77
100
AcDbEntity
  8
HOLDERS
  6
CONTINUOUS
 62
     7
100
AcDbLine
 10
15287.01789724576
 20
4466.173069025808
 30
0.0
 11
15287.01789724576
 21
4496.173069025807
 31
0.0
  0
CIRCLE
  5
78
100
AcDbEntity
  8
HOLDERS
  6
CONTINUOUS
100
AcDbCircle
 10
15275.01789724576
 20
4481.173069025808
 30
0.0
 40
7.499999999999999
  0
LINE
  5
79
100
AcDbEntity
  8
HOLDERS
  6
CONTINUOUS
100
AcDbLine
 10
15047.01789724576
 20
4476.173069025807
 30
0.0
 11
15037.01789724559
 21
4476.173069025807
 31
0.0
  0
LINE
  5
7A
100
AcDbEntity
  8
HOLDERS
  6
CONTINUOUS
100
AcDbLine
 10
15047.01789724576
 20
4486.173069025809
 30
0.0
 11
15037.01789724559
 21
4486.173069025809
 31
0.0
  0
ARC
  5
7B
100
AcDbEntity
  8
HOLDERS
  6
CONTINUOUS
100
AcDbCircle
 10
15047.01789724576
 20
4481.173069025807
 30
0.0
 40
4.999999999999999
100
AcDbArc
 50
270.0
 51
90.00000000000007
  0
LINE
  5
7C
100
AcDbEntity
  8
HOLDERS
  6
CONTINUOUS
 62
     7
100
AcDbLine
 10
15037.01789724575
 20
4496.173069025807
 30
0.0
 11
15037.01789724545
 21
4486.17306902578
 31
0.0
  0
LINE
  5
7D
100
AcDbEntity
  8
HOLDERS
  6
CONTINUOUS
 62
     7
100
AcDbLine
 10
15037.01789724503
 20
4476.173069026351
 30
0.0
 11
15037.01789724575
 21
4466.173069025808
 31
0.0
  0
LINE
  5
7E
100
AcDbEntity
  8
HOLDERS
  6
CONTINUOUS
100
AcDbLine
 10
15378.55037814062
 20
4445.632493320331
 30
0.0
 11
15370.55037815089
 21
4445.632493320772
 31
0.0
  0
LINE
  5
7F
100
AcDbEntity
  8
HOLDERS
  6
CONTINUOUS
 62
     7
100
AcDbLine
 10
15364.55037814397
 20
4410.132493320271
 30
0.0
 11
15614.55037814387
 21
4410.132493320251
 31
0.0
  0
LINE
  5
80
100
AcDbEntity
  8
HOLDERS
  6
CONTINUOUS
 62
     7
100
AcDbLine
 10
15364.55037814397
 20
4404.132493320271
 30
0.0
 11
15614.55037814387
 21
4404.132493320251
 31
0.0
  0
LINE
  5
81
100
AcDbEntity
  8
HOLDERS
  6
CONTINUOUS
100
AcDbLine
 10
15614.55037814387
 20
4404.132493320251
 30
0.0
 11
15614.55037814387
 21
4410.132493320251
 31
0.0
  0
LINE
  5
82
100
AcDbEntity
  8
HOLDERS
  6
CONTINUOUS
100
AcDbLine
 10
15364.55037814397
 20
4410.132493320271
 30
0.0
 11
15364.55037814397
 21
4404.132493320271
 31
0.0
  0
LINE
  5
83
100
AcDbEntity
  8
HOLDERS
  6
CONTINUOUS
 62
     7
100
AcDbLine
 10
15595.05037814349
 20
4410.132493320866
 30
0.0
 11
15610.05037814358
 21
4410.132493320587
 31
0.0
  0
LINE
  5
84
100
AcDbEntity
  8
HOLDERS
  6
CONTINUOUS
 62
     7
100
AcDbLine
 10
15595.05037814347
 20
4411.332493321164
 30
0.0
 11
15610.05037814358
 21
4411.332493320993
 31
0.0
  0
LINE
  5
85
100
AcDbEntity
  8
HOLDERS
  6
CONTINUOUS
100
AcDbLine
 10
15595.05037814386
 20
4378.13249332102
 30
0.0
 11
15595.05037814364
 21
4403.132493320133
 31
0.0
  0
LINE
  5
86
100
AcDbEntity
  8
HOLDERS
  6
CONTINUOUS
100
AcDbLine
 10
15595.05037814054
 20
4410.132493320612
 30
0.0
 11
15595.05037814326
 21
4411.332493320993
 31
0.0
  0
LINE
  5
87
100
AcDbEntity
  8
HOLDERS
  6
CONTINUOUS
100
AcDbLine
 10
15610.05037814369
 20
4378.13249332102
 30
0.0
 11
15610.05037814377
 21
4403.132493320327
 31
0.0
  0
LINE
  5
88
100
AcDbEntity
  8
HOLDERS
  6
CONTINUOUS
100
AcDbLine
 10
15610.05037814402
 20
4410.132493320335
 30
0.0
 11
15610.05037814369
 21
4411.332493320993
 31
0.0
  0
LINE
  5
89
100
AcDbEntity
  8
HOLDERS
  6
CONTINUOUS
100
AcDbLine
 10
15369.55037814374
 20
4378.132493321081
 30
0.0
 11
15369.55037814367
 21
4404.13249332027
 31
0.0
  0
LINE
  5
8A
100
AcDbEntity
  8
HOLDERS
  6
CONTINUOUS
100
AcDbLine
 10
15369.55037814391
 20
4410.132493320257
 30
0.0
 11
15369.5503781438
 21
4444.632493313681
 31
0.0
  0
LINE
  5
8B
100
AcDbEntity
  8
HOLDERS
  6
CONTINUOUS
100
AcDbLine
 10
15379.55037814376
 20
4378.132493321031
 30
0.0
 11
15379.55037814368
 21
4404.132493320268
 31
0.0
  0
LINE
  5
8C
100
AcDbEntity
  8
HOLDERS
  6
CONTINUOUS
100
AcDbLine
 10
15379.55037814374
 20
4410.132493320256
 30
0.0
 11
15379.55037814339
 21
4444.632493317599
 31
0.0
  0
LINE
  5
8D
100
AcDbEntity
  8
HOLDERS
  6
CONTINUOUS
 62
     7
100
AcDbLine
 10
15595.05037814364
 20
4403.132493320248
 30
0.0
 11
15610.05037814378
 21
4403.132493320443
 31
0.0
  0
LINE
  5
8E
100
AcDbEntity
  8
HOLDERS
  6
CONTINUOUS
100
AcDbLine
 10
15607.55037814371
 20
4403.132493320345
 30
0.0
 11
15607.55037814371
 21
4404.132493320251
 31
0.0
  0
LINE
  5
8F
100
AcDbEntity
  8
HOLDERS
  6
CONTINUOUS
100
AcDbLine
 10
15597.55037814371
 20
4403.132493320345
 30
0.0
 11
15597.55037814371
 21
4404.132493320251
 31
0.0
  0
LINE
  5
90
100
AcDbEntity
  8
HOLDERS
  6
CONTINUOUS
100
AcDbLine
 10
15379.55037814352
 20
4395.632493321154
 30
0.0
 11
15369.5503781437
 21
4395.632493321081
 31
0.0
  0
LINE
  5
91
100
AcDbEntity
  8
HOLDERS
  6
CONTINUOUS
100
AcDbLine
 10
15369.5503781437
 20
4395.632493321081
 30
0.0
 11
15379.55037814352
 21
4396.632493321154
 31
0.0
  0
LINE
  5
92
100
AcDbEntity
  8
HOLDERS
  6
CONTINUOUS
100
AcDbLine
 10
15369.5503781437
 20
4397.632493321082
 30
0.0
 11
15379.55037814352
 21
4398.632493321154
 31
0.0
  0
LINE
  5
93
100
AcDbEntity
  8
HOLDERS
  6
CONTINUOUS
100
AcDbLine
 10
15369.5503781437
 20
4399.632493321083
 30
0.0
 11
15379.55037814352
 21
4400.632493321154
 31
0.0
  0
LINE
  5
94
100
AcDbEntity
  8
HOLDERS
  6
CONTINUOUS
100
AcDbLine
 10
15369.5503781437
 20
4401.632493321082
 30
0.0
 11
15379.55037814352
 21
4402.632493321156
 31
0.0
  0
LINE
  5
95
100
AcDbEntity
  8
HOLDERS
  6
CONTINUOUS
100
AcDbLine
 10
15369.5503781437
 20
4403.632493321082
 30
0.0
 11
15374.55037814113
 21
4404.132493320268
 31
0.0
  0
LINE
  5
96
100
AcDbEntity
  8
HOLDERS
  6
CONTINUOUS
100
AcDbLine
 10
15374.55037814271
 20
4410.132493320256
 30
0.0
 11
15379.55037814352
 21
4410.632493321156
 31
0.0
  0
LINE
  5
97
100
AcDbEntity
  8
HOLDERS
  6
CONTINUOUS
100
AcDbLine
 10
15369.5503781437
 20
4411.632493321083
 30
0.0
 11
15379.55037814352
 21
4412.632493321156
 31
0.0
  0
LINE
  5
98
100
AcDbEntity
  8
HOLDERS
  6
CONTINUOUS
100
AcDbLine
 10
15369.5503781437
 20
4413.632493321084
 30
0.0
 11
15379.55037814352
 21
4414.632493321157
 31
0.0
  0
LINE
  5
99
100
AcDbEntity
  8
HOLDERS
  6
CONTINUOUS
100
AcDbLine
 10
15369.5503781437
 20
4415.632493321084
 30
0.0
 11
15379.55037814352
 21
4416.632493321157
 31
0.0
  0
LINE
  5
9A
100
AcDbEntity
  8
HOLDERS
  6
CONTINUOUS
100
AcDbLine
 10
15369.5503781437
 20
4417.632493321084
 30
0.0
 11
15379.55037814352
 21
4418.632493321157
 31
0.0
  0
LINE
  5
9B
100
AcDbEntity
  8
HOLDERS
  6
CONTINUOUS
100
AcDbLine
 10
15369.5503781437
 20
4419.632493321084
 30
0.0
 11
15379.55037814352
 21
4420.632493321157
 31
0.0
  0
LINE
  5
9C
100
AcDbEntity
  8
HOLDERS
  6
CONTINUOUS
100
AcDbLine
 10
15369.5503781437
 20
4421.632493321085
 30
0.0
 11
15379.55037814352
 21
4422.632493321158
 31
0.0
  0
LINE
  5
9D
100
AcDbEntity
  8
HOLDERS
  6
CONTINUOUS
100
AcDbLine
 10
15369.5503781437
 20
4423.632493321085
 30
0.0
 11
15379.55037814352
 21
4424.632493321158
 31
0.0
  0
LINE
  5
9E
100
AcDbEntity
  8
HOLDERS
  6
CONTINUOUS
100
AcDbLine
 10
15369.5503781437
 20
4425.632493321085
 30
0.0
 11
15379.55037814352
 21
4426.632493321158
 31
0.0
  0
LINE
  5
9F
100
AcDbEntity
  8
HOLDERS
  6
CONTINUOUS
100
AcDbLine
 10
15369.5503781437
 20
4427.632493321087
 30
0.0
 11
15379.55037814352
 21
4428.632493321159
 31
0.0
  0
LINE
  5
A0
100
AcDbEntity
  8
HOLDERS
  6
CONTINUOUS
100
AcDbLine
 10
15369.5503781437
 20
4429.632493321085
 30
0.0
 11
15379.55037814352
 21
4430.632493321159
 31
0.0
  0
LINE
  5
A1
100
AcDbEntity
  8
HOLDERS
  6
CONTINUOUS
100
AcDbLine
 10
15369.5503781437
 20
4431.632493321086
 30
0.0
 11
15379.55037814352
 21
4432.632493321158
 31
0.0
  0
LINE
  5
A2
100
AcDbEntity
  8
HOLDERS
  6
CONTINUOUS
100
AcDbLine
 10
15369.5503781437
 20
4433.632493321087
 30
0.0
 11
15379.55037814352
 21
4434.632493321159
 31
0.0
  0
LINE
  5
A3
100
AcDbEntity
  8
HOLDERS
  6
CONTINUOUS
100
AcDbLine
 10
15369.5503781437
 20
4435.632493321087
 30
0.0
 11
15379.55037814352
 21
4436.63249332116
 31
0.0
  0
LINE
  5
A4
100
AcDbEntity
  8
HOLDERS
  6
CONTINUOUS
100
AcDbLine
 10
15369.5503781437
 20
4437.632493321087
 30
0.0
 11
15379.55037814352
 21
4438.63249332116
 31
0.0
  0
LINE
  5
A5
100
AcDbEntity
  8
HOLDERS
  6
CONTINUOUS
100
AcDbLine
 10
15369.5503781437
 20
4439.632493321087
 30
0.0
 11
15379.55037814352
 21
4440.632493321159
 31
0.0
  0
LINE
  5
A6
100
AcDbEntity
  8
HOLDERS
  6
CONTINUOUS
100
AcDbLine
 10
15369.5503781437
 20
4441.632493321088
 30
0.0
 11
15379.55037814352
 21
4442.632493321161
 31
0.0
  0
LINE
  5
A7
100
AcDbEntity
  8
HOLDERS
  6
CONTINUOUS
100
AcDbLine
 10
15369.5503781437
 20
4443.632493321088
 30
0.0
 11
15379.55037814352
 21
4444.632493321161
 31
0.0
  0
LINE
  5
A8
100
AcDbEntity
  8
HOLDERS
  6
CONTINUOUS
100
AcDbLine
 10
15369.5503781438
 20
4444.632493320766
 30
0.0
 11
15370.5503781438
 21
4445.632493320773
 31
0.0
  0
LINE
  5
A9
100
AcDbEntity
  8
HOLDERS
  6
CONTINUOUS
100
AcDbLine
 10
15378.55037814339
 20
4445.632493320331
 30
0.0
 11
15379.55037814339
 21
4444.632493320375
 31
0.0
  0
LINE
  5
AA
100
AcDbEntity
  8
HOLDERS
  6
CONTINUOUS
 62
     7
100
AcDbLine
 10
15398.85295363655
 20
4185.208045902554
 30
0.0
 11
15603.85295363655
 21
4185.208045902522
 31
0.0
  0
LINE
  5
AB
100
AcDbEntity
  8
HOLDERS
  6
CONTINUOUS
 62
     7
100
AcDbLine
 10
15398.85295363655
 20
4215.208045902527
 30
0.0
 11
15603.85295363655
 21
4215.208045902522
 31
0.0
  0
LINE
  5
AC
100
AcDbEntity
  8
HOLDERS
  6
CONTINUOUS
 62
     7
100
AcDbLine
 10
15398.85295363655
 20
4072.167470197601
 30
0.0
 11
15603.85295363655
 21
4072.167470197605
 31
0.0
  0
ARC
  5
AD
100
AcDbEntity
  8
HOLDERS
  6
CONTINUOUS
 62
     7
100
AcDbCircle
 10
15479.35295363654
 20
4104.453184483317
 30
0.0
 40
21.28571428571154
100
AcDbArc
 50
200.0159596028797
 51
339.9840403971218
  0
LINE
  5
AE
100
AcDbEntity
  8
HOLDERS
  6
CONTINUOUS
 62
     7
100
AcDbLine
 10
15398.85295363654
 20
4072.167470197605
 30
0.0
 11
15398.85295363654
 21
4097.167470197606
 31
0.0
  0
LINE
  5
AF
100
AcDbEntity
  8
HOLDERS
  6
CONTINUOUS
 62
     7
100
AcDbLine
 10
15398.85295363654
 20
4215.208045902522
 30
0.0
 11
15398.85295363654
 21
4185.208045902522
 31
0.0
  0
LINE
  5
B0
100
AcDbEntity
  8
HOLDERS
  6
CONTINUOUS
 62
     7
100
AcDbLine
 10
15398.85295363664
 20
4207.208045902546
 30
0.0
 11
15420.85295363654
 21
4207.208045902523
 31
0.0
  0
LINE
  5
B1
100
AcDbEntity
  8
HOLDERS
  6
CONTINUOUS
 62
     7
100
AcDbLine
 10
15398.85295363664
 20
4193.208045902639
 30
0.0
 11
15420.85295363654
 21
4193.208045902522
 31
0.0
  0
LINE
  5
B2
100
AcDbEntity
  8
HOLDERS
  6
CONTINUOUS
 62
     7
100
AcDbLine
 10
15420.85295363654
 20
4193.208045902522
 30
0.0
 11
15420.85295363654
 21
4207.208045902523
 31
0.0
  0
LINE
  5
B3
100
AcDbEntity
  8
HOLDERS
  6
CONTINUOUS
 62
     7
100
AcDbLine
 10
15421.85295363654
 20
4215.208045902522
 30
0.0
 11
15421.85295363654
 21
4185.208045902522
 31
0.0
  0
LINE
  5
B4
100
AcDbEntity
  8
HOLDERS
  6
CONTINUOUS
 62
     7
100
AcDbLine
 10
15454.35295363654
 20
4185.208045902522
 30
0.0
 11
15454.35295363655
 21
4215.208045902522
 31
0.0
  0
LINE
  5
B5
100
AcDbEntity
  8
HOLDERS
  6
CONTINUOUS
 62
     7
100
AcDbLine
 10
15459.35295363655
 20
4215.208045902522
 30
0.0
 11
15459.35295363655
 21
4185.208045902522
 31
0.0
  0
CIRCLE
  5
B6
100
AcDbEntity
  8
HOLDERS
  6
CONTINUOUS
 62
     7
100
AcDbCircle
 10
15408.85295363655
 20
4084.667470197605
 30
0.0
 40
5.0
  0
ARC
  5
B7
100
AcDbEntity
  8
HOLDERS
  6
CONTINUOUS
 62
     7
100
AcDbCircle
 10
15438.10295363654
 20
4107.337609086495
 30
0.0
 40
19.17013888888909
100
AcDbArc
 50
212.0405846041466
 51
327.9594153958573
  0
LINE
  5
B8
100
AcDbEntity
  8
HOLDERS
  6
CONTINUOUS
 62
     7
100
AcDbLine
 10
15398.85295363664
 20
4097.16747019773
 30
0.0
 11
15421.85295363654
 21
4097.167470197616
 31
0.0
  0
LINE
  5
B9
100
AcDbEntity
  8
HOLDERS
  6
CONTINUOUS
 62
     7
100
AcDbLine
 10
15454.35295363654
 20
4097.167470197606
 30
0.0
 11
15459.35295363655
 21
4097.167470197606
 31
0.0
  0
LINE
  5
BA
100
AcDbEntity
  8
HOLDERS
  6
CONTINUOUS
 62
     7
100
AcDbLine
 10
15603.85295363655
 20
4072.167470197605
 30
0.0
 11
15603.85295363655
 21
4097.167470197606
 31
0.0
  0
LINE
  5
BB
100
AcDbEntity
  8
HOLDERS
  6
DOT
 62
     7
100
AcDbLine
 10
15595.85295363655
 20
4072.167470197605
 30
0.0
 11
15595.85295363655
 21
4096.167470197605
 31
0.0
  0
LINE
  5
BC
100
AcDbEntity
  8
HOLDERS
  6
DOT
 62
     7
100
AcDbLine
 10
15587.85295363654
 20
4072.167470197605
 30
0.0
 11
15587.85295363654
 21
4096.167470197605
 31
0.0
  0
ARC
  5
BD
100
AcDbEntity
  8
HOLDERS
  6
CONTINUOUS
 62
     7
100
AcDbCircle
 10
15565.60295363654
 20
4107.337609086495
 30
0.0
 40
19.17013888888909
100
AcDbArc
 50
212.0405846041466
 51
327.9594153958573
  0
LINE
  5
BE
100
AcDbEntity
  8
HOLDERS
  6
CONTINUOUS
 62
     7
100
AcDbLine
 10
15544.35295363654
 20
4185.208045902522
 30
0.0
 11
15544.35295363654
 21
4215.208045902522
 31
0.0
  0
LINE
  5
BF
100
AcDbEntity
  8
HOLDERS
  6
CONTINUOUS
 62
     7
100
AcDbLine
 10
15549.35295363654
 20
4185.208045902522
 30
0.0
 11
15549.35295363654
 21
4215.208045902522
 31
0.0
  0
LINE
  5
C0
100
AcDbEntity
  8
HOLDERS
  6
CONTINUOUS
 62
     7
100
AcDbLine
 10
15504.35295363655
 20
4185.208045902522
 30
0.0
 11
15504.35295363655
 21
4215.208045902522
 31
0.0
  0
LINE
  5
C1
100
AcDbEntity
  8
HOLDERS
  6
CONTINUOUS
 62
     7
100
AcDbLine
 10
15499.35295363654
 20
4185.208045902522
 30
0.0
 11
15499.35295363654
 21
4215.208045902521
 31
0.0
  0
ARC
  5
C2
100
AcDbEntity
  8
HOLDERS
  6
CONTINUOUS
 62
     7
100
AcDbCircle
 10
15524.35295363654
 20
4104.453184483317
 30
0.0
 40
21.28571428571154
100
AcDbArc
 50
200.0159596028797
 51
339.9840403971218
  0
LINE
  5
C3
100
AcDbEntity
  8
HOLDERS
  6
CONTINUOUS
 62
     7
100
AcDbLine
 10
15603.85295363655
 20
4185.208045902522
 30
0.0
 11
15603.85295363655
 21
4215.208045902522
 31
0.0
  0
LINE
  5
C4
100
AcDbEntity
  8
HOLDERS
  6
CONTINUOUS
 62
     7
100
AcDbLine
 10
15581.85295363655
 20
4185.208045902522
 30
0.0
 11
15581.85295363655
 21
4215.208045902522
 31
0.0
  0
CIRCLE
  5
C5
100
AcDbEntity
  8
HOLDERS
  6
CONTINUOUS
 62
     7
100
AcDbCircle
 10
15591.85295363655
 20
4200.208045902523
 30
0.0
 40
5.0
  0
CIRCLE
  5
C6
100
AcDbEntity
  8
HOLDERS
  6
CONTINUOUS
 62
     7
100
AcDbCircle
 10
15591.85295363655
 20
4200.208045902523
 30
0.0
 40
3.999999999999999
  0
LINE
  5
C7
100
AcDbEntity
  8
HOLDERS
  6
DOT
 62
     7
100
AcDbLine
 10
15595.85295363655
 20
4096.167470197605
 30
0.0
 11
15596.85295363654
 21
4097.167470197606
 31
0.0
  0
LINE
  5
C8
100
AcDbEntity
  8
HOLDERS
  6
DOT
 62
     7
100
AcDbLine
 10
15587.85295363654
 20
4096.167470197605
 30
0.0
 11
15586.85295363654
 21
4097.167470197606
 31
0.0
  0
LINE
  5
C9
100
AcDbEntity
  8
HOLDERS
  6
CONTINUOUS
 62
     7
100
AcDbLine
 10
15499.35295363654
 20
4097.167470197606
 30
0.0
 11
15504.35295363655
 21
4097.167470197606
 31
0.0
  0
LINE
  5
CA
100
AcDbEntity
  8
HOLDERS
  6
CONTINUOUS
 62
     7
100
AcDbLine
 10
15544.35295363654
 20
4097.167470197606
 30
0.0
 11
15549.35295363654
 21
4097.167470197606
 31
0.0
  0
LINE
  5
CB
100
AcDbEntity
  8
HOLDERS
  6
CONTINUOUS
 62
     7
100
AcDbLine
 10
15581.85295363655
 20
4097.167470197606
 30
0.0
 11
15603.85295363655
 21
4097.167470197606
 31
0.0
  0
TEXT
  5
CC
100
AcDbEntity
  8
COMMENTS
  6
CONTINUOUS
100
AcDbText
 10
15144.31282289241
 20
4124.141168106948
 30
0.0
 40
8.985816737008438
  1
Shorter type, used on the
 41
0.6
  7
ARIAL
 11
15144.31282289241
 21
4133.126984843957
 31
0.0
100
AcDbText
 73
     3
  0
TEXT
  5
CD
100
AcDbEntity
  8
COMMENTS
  6
CONTINUOUS
100
AcDbText
 10
15144.31282289241
 20
4110.662443001436
 30
-13.47872510551265
 40
8.985816737008438
  1
left side of initial Tigers
 41
0.6
  7
ARIAL
 11
15144.31282289241
 21
4119.648259738444
 31
-13.47872510551265
100
AcDbText
 73
     3
  0
TEXT
  5
CE
100
AcDbEntity
  8
COMMENTS
  6
CONTINUOUS
100
AcDbText
 10
15144.31282289241
 20
4097.183717895923
 30
-26.95745021102531
 40
8.985816737008438
  1
with 5 cleaning rods.
 41
0.6
  7
ARIAL
 11
15144.31282289241
 21
4106.169534632932
 31
-26.95745021102531
100
AcDbText
 73
     3
  0
LINE
  5
CF
100
AcDbEntity
  8
HOLDERS
  6
CONTINUOUS
 62
     7
100
AcDbLine
 10
15071.32047273856
 20
4185.20804590254
 30
0.0
 11
15276.32047273856
 21
4185.208045902522
 31
0.0
  0
LINE
  5
D0
100
AcDbEntity
  8
HOLDERS
  6
CONTINUOUS
 62
     7
100
AcDbLine
 10
15071.32047273638
 20
4215.208045902516
 30
0.0
 11
15276.32047273856
 21
4215.208045902522
 31
0.0
  0
LINE
  5
D1
100
AcDbEntity
  8
HOLDERS
  6
CONTINUOUS
 62
     7
100
AcDbLine
 10
15276.32047273856
 20
4185.208045902522
 30
0.0
 11
15276.32047273856
 21
4215.208045902522
 31
0.0
  0
CIRCLE
  5
D2
100
AcDbEntity
  8
HOLDERS
  6
CONTINUOUS
100
AcDbCircle
 10
15264.32047273856
 20
4200.208045902523
 30
0.0
 40
7.499999999999999
  0
LINE
  5
D3
100
AcDbEntity
  8
HOLDERS
  6
CONTINUOUS
100
AcDbLine
 10
15081.32047273856
 20
4195.208045902521
 30
0.0
 11
15071.3204727384
 21
4195.208045902521
 31
0.0
  0
LINE
  5
D4
100
AcDbEntity
  8
HOLDERS
  6
CONTINUOUS
100
AcDbLine
 10
15081.32047273856
 20
4205.208045902522
 30
0.0
 11
15071.3204727384
 21
4205.208045902522
 31
0.0
  0
ARC
  5
D5
100
AcDbEntity
  8
HOLDERS
  6
CONTINUOUS
100
AcDbCircle
 10
15081.32047273856
 20
4200.208045902522
 30
0.0
 40
4.999999999999999
100
AcDbArc
 50
270.0
 51
90.00000000000007
  0
LINE
  5
D6
100
AcDbEntity
  8
HOLDERS
  6
CONTINUOUS
 62
     7
100
AcDbLine
 10
15071.32047273856
 20
4215.208045902522
 30
0.0
 11
15071.32047273826
 21
4205.208045902494
 31
0.0
  0
LINE
  5
D7
100
AcDbEntity
  8
HOLDERS
  6
CONTINUOUS
 62
     7
100
AcDbLine
 10
15071.32047273783
 20
4195.208045903066
 30
0.0
 11
15071.32047273856
 21
4185.208045902522
 31
0.0
  0
LINE
  5
D8
100
AcDbEntity
  8
HOLDERS
  6
CONTINUOUS
100
AcDbLine
 10
15412.85295363342
 20
4164.667470197046
 30
0.0
 11
15404.85295364369
 21
4164.667470197487
 31
0.0
  0
LINE
  5
D9
100
AcDbEntity
  8
HOLDERS
  6
CONTINUOUS
 62
     7
100
AcDbLine
 10
15398.85295363655
 20
4129.167470196989
 30
0.0
 11
15603.85295363668
 21
4129.167470196966
 31
0.0
  0
LINE
  5
DA
100
AcDbEntity
  8
HOLDERS
  6
CONTINUOUS
 62
     7
100
AcDbLine
 10
15398.85295363655
 20
4123.167470196965
 30
0.0
 11
15603.85295363668
 21
4123.167470196966
 31
0.0
  0
LINE
  5
DB
100
AcDbEntity
  8
HOLDERS
  6
CONTINUOUS
100
AcDbLine
 10
15603.85295363668
 20
4123.167470196966
 30
0.0
 11
15603.85295363668
 21
4129.167470196966
 31
0.0
  0
LINE
  5
DC
100
AcDbEntity
  8
HOLDERS
  6
CONTINUOUS
100
AcDbLine
 10
15398.85295363677
 20
4129.167470196986
 30
0.0
 11
15398.85295363677
 21
4123.167470196985
 31
0.0
  0
LINE
  5
DD
100
AcDbEntity
  8
HOLDERS
  6
CONTINUOUS
 62
     7
100
AcDbLine
 10
15584.35295363629
 20
4129.167470197581
 30
0.0
 11
15599.35295363638
 21
4129.167470197302
 31
0.0
  0
LINE
  5
DE
100
AcDbEntity
  8
HOLDERS
  6
CONTINUOUS
 62
     7
100
AcDbLine
 10
15584.35295363627
 20
4130.367470197877
 30
0.0
 11
15599.35295363638
 21
4130.367470197708
 31
0.0
  0
LINE
  5
DF
100
AcDbEntity
  8
HOLDERS
  6
CONTINUOUS
100
AcDbLine
 10
15584.35295363666
 20
4097.167470197734
 30
0.0
 11
15584.35295363645
 21
4122.167470196846
 31
0.0
  0
LINE
  5
E0
100
AcDbEntity
  8
HOLDERS
  6
CONTINUOUS
100
AcDbLine
 10
15584.35295363334
 20
4129.167470197327
 30
0.0
 11
15584.35295363606
 21
4130.367470197708
 31
0.0
  0
LINE
  5
E1
100
AcDbEntity
  8
HOLDERS
  6
CONTINUOUS
100
AcDbLine
 10
15599.3529536365
 20
4097.167470197734
 30
0.0
 11
15599.35295363658
 21
4122.167470197042
 31
0.0
  0
LINE
  5
E2
100
AcDbEntity
  8
HOLDERS
  6
CONTINUOUS
100
AcDbLine
 10
15599.35295363683
 20
4129.167470197049
 30
0.0
 11
15599.35295363649
 21
4130.367470197708
 31
0.0
  0
LINE
  5
E3
100
AcDbEntity
  8
HOLDERS
  6
CONTINUOUS
100
AcDbLine
 10
15403.85295363654
 20
4097.167470197795
 30
0.0
 11
15403.85295363647
 21
4123.167470196984
 31
0.0
  0
LINE
  5
E4
100
AcDbEntity
  8
HOLDERS
  6
CONTINUOUS
100
AcDbLine
 10
15403.85295363672
 20
4129.167470196971
 30
0.0
 11
15403.85295363661
 21
4163.667470190396
 31
0.0
  0
LINE
  5
E5
100
AcDbEntity
  8
HOLDERS
  6
CONTINUOUS
100
AcDbLine
 10
15413.85295363657
 20
4097.167470197745
 30
0.0
 11
15413.85295363649
 21
4123.167470196983
 31
0.0
  0
LINE
  5
E6
100
AcDbEntity
  8
HOLDERS
  6
CONTINUOUS
100
AcDbLine
 10
15413.85295363655
 20
4129.16747019697
 30
0.0
 11
15413.85295363619
 21
4163.667470194313
 31
0.0
  0
LINE
  5
E7
100
AcDbEntity
  8
HOLDERS
  6
CONTINUOUS
 62
     7
100
AcDbLine
 10
15584.35295363644
 20
4122.167470196962
 30
0.0
 11
15599.35295363658
 21
4122.167470197157
 31
0.0
  0
LINE
  5
E8
100
AcDbEntity
  8
HOLDERS
  6
CONTINUOUS
100
AcDbLine
 10
15596.85295363651
 20
4122.16747019706
 30
0.0
 11
15596.85295363651
 21
4123.167470196966
 31
0.0
  0
LINE
  5
E9
100
AcDbEntity
  8
HOLDERS
  6
CONTINUOUS
100
AcDbLine
 10
15586.85295363651
 20
4122.16747019706
 30
0.0
 11
15586.85295363651
 21
4123.167470196966
 31
0.0
  0
LINE
  5
EA
100
AcDbEntity
  8
HOLDERS
  6
CONTINUOUS
100
AcDbLine
 10
15413.85295363633
 20
4114.667470197868
 30
0.0
 11
15403.85295363651
 21
4114.667470197796
 31
0.0
  0
LINE
  5
EB
100
AcDbEntity
  8
HOLDERS
  6
CONTINUOUS
100
AcDbLine
 10
15403.85295363651
 20
4114.667470197796
 30
0.0
 11
15413.85295363633
 21
4115.667470197869
 31
0.0
  0
LINE
  5
EC
100
AcDbEntity
  8
HOLDERS
  6
CONTINUOUS
100
AcDbLine
 10
15403.85295363651
 20
4116.667470197795
 30
0.0
 11
15413.85295363633
 21
4117.667470197869
 31
0.0
  0
LINE
  5
ED
100
AcDbEntity
  8
HOLDERS
  6
CONTINUOUS
100
AcDbLine
 10
15403.85295363651
 20
4118.667470197796
 30
0.0
 11
15413.85295363633
 21
4119.667470197869
 31
0.0
  0
LINE
  5
EE
100
AcDbEntity
  8
HOLDERS
  6
CONTINUOUS
100
AcDbLine
 10
15403.85295363651
 20
4120.667470197797
 30
0.0
 11
15413.85295363633
 21
4121.66747019787
 31
0.0
  0
LINE
  5
EF
100
AcDbEntity
  8
HOLDERS
  6
CONTINUOUS
100
AcDbLine
 10
15403.85295363651
 20
4122.667470197797
 30
0.0
 11
15408.85295363393
 21
4123.167470196983
 31
0.0
  0
LINE
  5
F0
100
AcDbEntity
  8
HOLDERS
  6
CONTINUOUS
100
AcDbLine
 10
15408.85295363551
 20
4129.16747019697
 30
0.0
 11
15413.85295363633
 21
4129.667470197871
 31
0.0
  0
LINE
  5
F1
100
AcDbEntity
  8
HOLDERS
  6
CONTINUOUS
100
AcDbLine
 10
15403.85295363651
 20
4130.667470197798
 30
0.0
 11
15413.85295363633
 21
4131.667470197871
 31
0.0
  0
LINE
  5
F2
100
AcDbEntity
  8
HOLDERS
  6
CONTINUOUS
100
AcDbLine
 10
15403.85295363651
 20
4132.667470197798
 30
0.0
 11
15413.85295363633
 21
4133.66747019787
 31
0.0
  0
LINE
  5
F3
100
AcDbEntity
  8
HOLDERS
  6
CONTINUOUS
100
AcDbLine
 10
15403.85295363651
 20
4134.667470197799
 30
0.0
 11
15413.85295363633
 21
4135.667470197872
 31
0.0
  0
LINE
  5
F4
100
AcDbEntity
  8
HOLDERS
  6
CONTINUOUS
100
AcDbLine
 10
15403.85295363651
 20
4136.667470197799
 30
0.0
 11
15413.85295363633
 21
4137.667470197872
 31
0.0
  0
LINE
  5
F5
100
AcDbEntity
  8
HOLDERS
  6
CONTINUOUS
100
AcDbLine
 10
15403.85295363651
 20
4138.667470197798
 30
0.0
 11
15413.85295363633
 21
4139.667470197871
 31
0.0
  0
LINE
  5
F6
100
AcDbEntity
  8
HOLDERS
  6
CONTINUOUS
100
AcDbLine
 10
15403.85295363651
 20
4140.6674701978
 30
0.0
 11
15413.85295363633
 21
4141.667470197872
 31
0.0
  0
LINE
  5
F7
100
AcDbEntity
  8
HOLDERS
  6
CONTINUOUS
100
AcDbLine
 10
15403.85295363651
 20
4142.6674701978
 30
0.0
 11
15413.85295363633
 21
4143.667470197873
 31
0.0
  0
LINE
  5
F8
100
AcDbEntity
  8
HOLDERS
  6
CONTINUOUS
100
AcDbLine
 10
15403.85295363651
 20
4144.667470197799
 30
0.0
 11
15413.85295363633
 21
4145.667470197873
 31
0.0
  0
LINE
  5
F9
100
AcDbEntity
  8
HOLDERS
  6
CONTINUOUS
100
AcDbLine
 10
15403.85295363651
 20
4146.6674701978
 30
0.0
 11
15413.85295363633
 21
4147.667470197872
 31
0.0
  0
LINE
  5
FA
100
AcDbEntity
  8
HOLDERS
  6
CONTINUOUS
100
AcDbLine
 10
15403.85295363651
 20
4148.667470197801
 30
0.0
 11
15413.85295363633
 21
4149.667470197874
 31
0.0
  0
LINE
  5
FB
100
AcDbEntity
  8
HOLDERS
  6
CONTINUOUS
100
AcDbLine
 10
15403.85295363651
 20
4150.667470197801
 30
0.0
 11
15413.85295363633
 21
4151.667470197874
 31
0.0
  0
LINE
  5
FC
100
AcDbEntity
  8
HOLDERS
  6
CONTINUOUS
100
AcDbLine
 10
15403.85295363651
 20
4152.6674701978
 30
0.0
 11
15413.85295363633
 21
4153.667470197873
 31
0.0
  0
LINE
  5
FD
100
AcDbEntity
  8
HOLDERS
  6
CONTINUOUS
100
AcDbLine
 10
15403.85295363651
 20
4154.667470197802
 30
0.0
 11
15413.85295363633
 21
4155.667470197874
 31
0.0
  0
LINE
  5
FE
100
AcDbEntity
  8
HOLDERS
  6
CONTINUOUS
100
AcDbLine
 10
15403.85295363651
 20
4156.667470197802
 30
0.0
 11
15413.85295363633
 21
4157.667470197874
 31
0.0
  0
LINE
  5
FF
100
AcDbEntity
  8
HOLDERS
  6
CONTINUOUS
100
AcDbLine
 10
15403.85295363651
 20
4158.667470197801
 30
0.0
 11
15413.85295363633
 21
4159.667470197875
 31
0.0
  0
LINE
  5
100
100
AcDbEntity
  8
HOLDERS
  6
CONTINUOUS
100
AcDbLine
 10
15403.85295363651
 20
4160.667470197801
 30
0.0
 11
15413.85295363633
 21
4161.667470197874
 31
0.0
  0
LINE
  5
101
100
AcDbEntity
  8
HOLDERS
  6
CONTINUOUS
100
AcDbLine
 10
15403.85295363651
 20
4162.667470197802
 30
0.0
 11
15413.85295363633
 21
4163.667470197875
 31
0.0
  0
LINE
  5
102
100
AcDbEntity
  8
HOLDERS
  6
CONTINUOUS
100
AcDbLine
 10
15403.85295363661
 20
4163.66747019748
 30
0.0
 11
15404.8529536366
 21
4164.667470197488
 31
0.0
  0
LINE
  5
103
100
AcDbEntity
  8
HOLDERS
  6
CONTINUOUS
100
AcDbLine
 10
15412.85295363619
 20
4164.667470197046
 30
0.0
 11
15413.85295363619
 21
4163.667470197089
 31
0.0
  0
TEXT
  5
104
100
AcDbEntity
  8
COMMENTS
  6
CONTINUOUS
100
AcDbText
 10
15129.459552792
 20
4454.647965437989
 30
0.0
 40
4.492908368504219
  1
Movable clamp
 41
0.6
  7
ARIAL
 11
15129.459552792
 21
4459.140873806492
 31
0.0
100
AcDbText
 73
     3
  0
TEXT
  5
105
100
AcDbEntity
  8
COMMENTS
  6
CONTINUOUS
100
AcDbText
 10
15476.54057714241
 20
4454.647965437989
 30
0.0
 40
4.492908368504219
  1
Base
 41
0.6
  7
ARIAL
 11
15476.54057714241
 21
4459.140873806492
 31
0.0
100
AcDbText
 73
     3
  0
TEXT
  5
106
100
AcDbEntity
  8
COMMENTS
  6
CONTINUOUS
100
AcDbText
 10
15492.00194381854
 20
4173.144461817382
 30
0.0
 40
4.492908368504219
  1
Base
 41
0.6
  7
ARIAL
 11
15492.00194381854
 21
4177.637370185887
 31
0.0
100
AcDbText
 73
     3
  0
TEXT
  5
107
100
AcDbEntity
  8
COMMENTS
  6
CONTINUOUS
100
AcDbText
 10
15144.92091946814
 20
4173.144461817382
 30
0.0
 40
4.492908368504219
  1
Movable clamp
 41
0.6
  7
ARIAL
 11
15144.92091946814
 21
4177.637370185887
 31
0.0
100
AcDbText
 73
     3
  0
TEXT
  5
108
100
AcDbEntity
  8
COMMENTS
  6
CONTINUOUS
100
AcDbText
 10
15451.48250011558
 20
4389.603595283227
 30
0.0
 40
4.492908368504219
  1
Assembled, without wing nut.
 41
0.6
  7
ARIAL
 11
15451.48250011558
 21
4394.096503651731
 31
0.0
100
AcDbText
 73
     3
  0
TEXT
  5
109
100
AcDbEntity
  8
COMMENTS
  6
CONTINUOUS
100
AcDbText
 10
15461.61236104132
 20
4109.699543387737
 30
0.0
 40
4.492908368504219
  1
Assembled, without wing nut.
 41
0.6
  7
ARIAL
 11
15461.61236104132
 21
4114.192451756242
 31
0.0
100
AcDbText
 73
     3
  0
TEXT
  5
10A
100
AcDbEntity
  8
COMMENTS
100
AcDbText
 10
15014.69077715918
 20
4080.773325234314
 30
0.0
 40
5.616135460630274
  1
Drg version 1.0 / 23 Feb 2014
 41
0.6000000000000001
  7
ARIAL
 11
15014.69077715918
 21
4080.773325234314
 31
0.0
100
AcDbText
 73
     1
  0
ENDSEC
  0
SECTION
  2
OBJECTS
  0
DICTIONARY
  5
C
100
AcDbDictionary
  3
ACAD_GROUP
350
D
  3
ACAD_MLINESTYLE
350
1B
  3
ACDBVARIABLEDICTIONARY
350
1E
  0
DICTIONARY
  5
D
102
{ACAD_REACTORS
330
C
102
}
100
AcDbDictionary
  0
DICTIONARY
  5
1B
102
{ACAD_REACTORS
330
C
102
}
100
AcDbDictionary
  3
STANDARD
350
1C
  0
DICTIONARY
  5
1E
102
{ACAD_REACTORS
330
C
102
}
100
AcDbDictionary
  3
DIMADEC
350
1F
  0
MLINESTYLE
  5
1C
102
{ACAD_REACTORS
330
1B
102
}
100
AcDbMlineStyle
  2
STANDARD
 70
     0
  3

 62
   256
 51
90.0
 52
90.0
 71
     2
 49
0.5
 62
   256
  6
BYLAYER
 49
-0.5
 62
   256
  6
BYLAYER
  0
DICTIONARYVAR
  5
1F
102
{ACAD_REACTORS
330
1E
102
}
100
DictionaryVariables
280
     0
  1
-1
  0
ENDSEC
  0
EOF
