  0
SECTION
  2
HEADER
  9
$ACADVER
  1
AC1014
  9
$ACADMAINTVER
 70
     5
  9
$DWGCODEPAGE
  3
ANSI_1252
  9
$INSBASE
 10
0.0
 20
0.0
 30
0.0
  9
$EXTMIN
 10
1.000000000000000E+20
 20
1.000000000000000E+20
 30
1.000000000000000E+20
  9
$EXTMAX
 10
-1.000000000000000E+20
 20
-1.000000000000000E+20
 30
-1.000000000000000E+20
  9
$LIMMIN
 10
0.0
 20
0.0
  9
$LIMMAX
 10
12.0
 20
9.0
  9
$ORTHOMODE
 70
     0
  9
$REGENMODE
 70
     1
  9
$FILLMODE
 70
     1
  9
$QTEXTMODE
 70
     0
  9
$MIRRTEXT
 70
     1
  9
$DRAGMODE
 70
     2
  9
$LTSCALE
 40
1.0
  9
$OSMODE
 70
   128
  9
$ATTMODE
 70
     0
  9
$TEXTSIZE
 40
321.225654887684
  9
$TRACEWID
 40
0.05
  9
$TEXTSTYLE
  7
STANDARD
  9
$CLAYER
  8
0
  9
$CELTYPE
  6
BYLAYER
  9
$CECOLOR
 62
   256
  9
$CELTSCALE
 40
1.0
  9
$DELOBJ
 70
     1
  9
$DISPSILH
 70
     0
  9
$DIMSCALE
 40
1.0
  9
$DIMASZ
 40
0.18
  9
$DIMEXO
 40
0.0625
  9
$DIMDLI
 40
0.38
  9
$DIMRND
 40
0.0
  9
$DIMDLE
 40
0.0
  9
$DIMEXE
 40
0.18
  9
$DIMTP
 40
0.0
  9
$DIMTM
 40
0.0
  9
$DIMTXT
 40
0.5058671730514711
  9
$DIMCEN
 40
0.09
  9
$DIMTSZ
 40
0.0
  9
$DIMTOL
 70
     0
  9
$DIMLIM
 70
     0
  9
$DIMTIH
 70
     1
  9
$DIMTOH
 70
     1
  9
$DIMSE1
 70
     0
  9
$DIMSE2
 70
     0
  9
$DIMTAD
 70
     0
  9
$DIMZIN
 70
     0
  9
$DIMBLK
  1

  9
$DIMASO
 70
     1
  9
$DIMSHO
 70
     1
  9
$DIMPOST
  1

  9
$DIMAPOST
  1

  9
$DIMALT
 70
     0
  9
$DIMALTD
 70
     2
  9
$DIMALTF
 40
25.4
  9
$DIMLFAC
 40
1.0
  9
$DIMTOFL
 70
     0
  9
$DIMTVP
 40
0.0
  9
$DIMTIX
 70
     0
  9
$DIMSOXD
 70
     0
  9
$DIMSAH
 70
     0
  9
$DIMBLK1
  1

  9
$DIMBLK2
  1

  9
$DIMSTYLE
  2
STANDARD
  9
$DIMCLRD
 70
     0
  9
$DIMCLRE
 70
     0
  9
$DIMCLRT
 70
     0
  9
$DIMTFAC
 40
1.0
  9
$DIMGAP
 40
0.09
  9
$DIMJUST
 70
     0
  9
$DIMSD1
 70
     0
  9
$DIMSD2
 70
     0
  9
$DIMTOLJ
 70
     1
  9
$DIMTZIN
 70
     0
  9
$DIMALTZ
 70
     0
  9
$DIMALTTZ
 70
     0
  9
$DIMFIT
 70
     3
  9
$DIMUPT
 70
     0
  9
$DIMUNIT
 70
     4
  9
$DIMDEC
 70
    -1
  9
$DIMTDEC
 70
     4
  9
$DIMALTU
 70
     2
  9
$DIMALTTD
 70
     2
  9
$DIMTXSTY
  7
STANDARD
  9
$DIMAUNIT
 70
     1
  9
$LUNITS
 70
     2
  9
$LUPREC
 70
     2
  9
$SKETCHINC
 40
0.1
  9
$FILLETRAD
 40
10.0
  9
$AUNITS
 70
     0
  9
$AUPREC
 70
     2
  9
$MENU
  1
.
  9
$ELEVATION
 40
0.0
  9
$PELEVATION
 40
0.0
  9
$THICKNESS
 40
0.0
  9
$LIMCHECK
 70
     0
  9
$BLIPMODE
 70
     0
  9
$CHAMFERA
 40
1.999999999999999
  9
$CHAMFERB
 40
1.999999999999999
  9
$CHAMFERC
 40
0.0
  9
$CHAMFERD
 40
0.0
  9
$SKPOLY
 70
     0
  9
$TDCREATE
 40
0.0000000000
  9
$TDUPDATE
 40
0.0000000000
  9
$TDINDWG
 40
0.0000000000
  9
$TDUSRTIMER
 40
0.0000000000
  9
$USRTIMER
 70
     1
  9
$ANGBASE
 50
0.0
  9
$ANGDIR
 70
     0
  9
$PDMODE
 70
     0
  9
$PDSIZE
 40
0.0
  9
$PLINEWID
 40
0.0
  9
$COORDS
 70
     1
  9
$SPLFRAME
 70
     0
  9
$SPLINETYPE
 70
     6
  9
$SPLINESEGS
 70
     8
  9
$ATTDIA
 70
     0
  9
$ATTREQ
 70
     1
  9
$HANDLING
 70
     1
  9
$HANDSEED
  5
E7
  9
$SURFTAB1
 70
     6
  9
$SURFTAB2
 70
     6
  9
$SURFTYPE
 70
     6
  9
$SURFU
 70
     6
  9
$SURFV
 70
     6
  9
$UCSNAME
  2

  9
$UCSORG
 10
0.0
 20
0.0
 30
0.0
  9
$UCSXDIR
 10
1.0
 20
0.0
 30
0.0
  9
$UCSYDIR
 10
0.0
 20
1.0
 30
0.0
  9
$PUCSNAME
  2

  9
$PUCSORG
 10
0.0
 20
0.0
 30
0.0
  9
$PUCSXDIR
 10
1.0
 20
0.0
 30
0.0
  9
$PUCSYDIR
 10
0.0
 20
1.0
 30
0.0
  9
$USERI1
 70
     0
  9
$USERI2
 70
     0
  9
$USERI3
 70
     0
  9
$USERI4
 70
     0
  9
$USERI5
 70
     0
  9
$USERR1
 40
0.0
  9
$USERR2
 40
0.0
  9
$USERR3
 40
0.0
  9
$USERR4
 40
0.0
  9
$USERR5
 40
0.0
  9
$WORLDVIEW
 70
     1
  9
$SHADEDGE
 70
     3
  9
$SHADEDIF
 70
    70
  9
$TILEMODE
 70
     1
  9
$MAXACTVP
 70
    48
  9
$PINSBASE
 10
0.0
 20
0.0
 30
0.0
  9
$PLIMCHECK
 70
     0
  9
$PEXTMIN
 10
1.000000000000000E+20
 20
1.000000000000000E+20
 30
1.000000000000000E+20
  9
$PEXTMAX
 10
-1.000000000000000E+20
 20
-1.000000000000000E+20
 30
-1.000000000000000E+20
  9
$PLIMMIN
 10
0.0
 20
0.0
  9
$PLIMMAX
 10
12.0
 20
9.0
  9
$UNITMODE
 70
     0
  9
$VISRETAIN
 70
     1
  9
$PLINEGEN
 70
     0
  9
$PSLTSCALE
 70
     1
  9
$TREEDEPTH
 70
  3020
  9
$PICKSTYLE
 70
     1
  9
$CMLSTYLE
  2
STANDARD
  9
$CMLJUST
 70
     0
  9
$CMLSCALE
 40
1.0
  9
$PROXYGRAPHICS
 70
     1
  9
$MEASUREMENT
 70
     0
  0
ENDSEC
  0
SECTION
  2
CLASSES
  0
CLASS
  1
DICTIONARYVAR
  2
AcDbDictionaryVar
  3
"AutoCAD"
 90
        0
280
     0
281
     0
  0
CLASS
  1
LWPOLYLINE
  2
AcDbPolyline
  3
"AutoCAD"
 90
        0
280
     0
281
     1
  0
ENDSEC
  0
SECTION
  2
TABLES
  0
TABLE
  2
VPORT
  5
8
100
AcDbSymbolTable
 70
     1
  0
VPORT
  5
11
100
AcDbSymbolTableRecord
100
AcDbViewportTableRecord
  2
*ACTIVE
 70
     0
 10
0.0
 20
0.0
 11
1.0
 21
1.0
 12
3.6
 22
4.5
 13
0.0
 23
0.0
 14
1.0
 24
1.0
 15
0.0
 25
0.0
 16
0.0
 26
0.0
 36
1.0
 17
0.0
 27
0.0
 37
0.0
 40
15.0
 41
0.8
 42
50.0
 43
0.0
 44
0.0
 50
0.0
 51
0.0
 71
     0
 72
   100
 73
     1
 74
     1
 75
     0
 76
     0
 77
     0
 78
     0
  0
ENDTAB
  0
TABLE
  2
LTYPE
  5
5
100
AcDbSymbolTable
 70
    40
  0
LTYPE
  5
12
100
AcDbSymbolTableRecord
100
AcDbLinetypeTableRecord
  2
BYBLOCK
 70
     0
  3

 72
    65
 73
     0
 40
0.0
  0
LTYPE
  5
13
100
AcDbSymbolTableRecord
100
AcDbLinetypeTableRecord
  2
BYLAYER
 70
     0
  3

 72
    65
 73
     0
 40
0.0
  0
LTYPE
  5
14
100
AcDbSymbolTableRecord
100
AcDbLinetypeTableRecord
  2
CONTINUOUS
 70
     0
  3
Solid line
 72
    65
 73
     0
 40
0.0
  0
LTYPE
  5
20
100
AcDbSymbolTableRecord
100
AcDbLinetypeTableRecord
  2
HIDDEN
 70
     0
  3
_ _ _ _ _ _ _ _ _ _ _ _ _ _ 
 72
    65
 73
     2
 40
9.524999999999998
 49
6.349999999999999
 74
     0
 49
-3.174999999999999
 74
     0
  0
LTYPE
  5
21
100
AcDbSymbolTableRecord
100
AcDbLinetypeTableRecord
  2
DASHED
 70
     0
  3
__ __ __ __ __ __ __ __ __ 
 72
    65
 73
     2
 40
19.04999999999999
 49
12.7
 74
     0
 49
-6.349999999999999
 74
     0
  0
LTYPE
  5
22
100
AcDbSymbolTableRecord
100
AcDbLinetypeTableRecord
  2
CENTER
 70
     0
  3
____ _ ____ _ ____ _ ____ _ 
 72
    65
 73
     4
 40
50.8
 49
31.75
 74
     0
 49
-6.349999999999999
 74
     0
 49
6.349999999999999
 74
     0
 49
-6.349999999999999
 74
     0
  0
LTYPE
  5
23
100
AcDbSymbolTableRecord
100
AcDbLinetypeTableRecord
  2
PHANTOM
 70
     0
  3
_____ _ _ _____ _ _ _____ _ _ 
 72
    65
 73
     6
 40
63.50000000000001
 49
31.75
 74
     0
 49
-6.349999999999999
 74
     0
 49
6.349999999999999
 74
     0
 49
-6.349999999999999
 74
     0
 49
6.349999999999999
 74
     0
 49
-6.349999999999999
 74
     0
  0
LTYPE
  5
24
100
AcDbSymbolTableRecord
100
AcDbLinetypeTableRecord
  2
DOT
 70
     0
  3
...........................
 72
    65
 73
     2
 40
6.349999999999999
 49
0.0
 74
     0
 49
-6.349999999999999
 74
     0
  0
LTYPE
  5
25
100
AcDbSymbolTableRecord
100
AcDbLinetypeTableRecord
  2
DASHDOT
 70
     0
  3
__ . __ . __ . __ . __ . __ . 
 72
    65
 73
     4
 40
25.4
 49
12.7
 74
     0
 49
-6.349999999999999
 74
     0
 49
0.0
 74
     0
 49
-6.349999999999999
 74
     0
  0
LTYPE
  5
26
100
AcDbSymbolTableRecord
100
AcDbLinetypeTableRecord
  2
DIVIDE
 70
     0
  3
__ . . __ . . __ . . __ . . 
 72
    65
 73
     6
 40
31.75
 49
12.7
 74
     0
 49
-6.349999999999999
 74
     0
 49
0.0
 74
     0
 49
-6.349999999999999
 74
     0
 49
0.0
 74
     0
 49
-6.349999999999999
 74
     0
  0
LTYPE
  5
27
100
AcDbSymbolTableRecord
100
AcDbLinetypeTableRecord
  2
BORDER
 70
     0
  3
__ __ . __ __ . __ __ . __ __ .
 72
    65
 73
     6
 40
44.44999999999999
 49
12.7
 74
     0
 49
-6.349999999999999
 74
     0
 49
12.7
 74
     0
 49
-6.349999999999999
 74
     0
 49
0.0
 74
     0
 49
-6.349999999999999
 74
     0
  0
LTYPE
  5
28
100
AcDbSymbolTableRecord
100
AcDbLinetypeTableRecord
  2
BORDER2
 70
     0
  3
Border (.5x) __.__.__.__.__.__.
 72
    65
 73
     6
 40
0.875
 49
0.25
 74
     0
 49
-0.125
 74
     0
 49
0.25
 74
     0
 49
-0.125
 74
     0
 49
0.0
 74
     0
 49
-0.125
 74
     0
  0
LTYPE
  5
29
100
AcDbSymbolTableRecord
100
AcDbLinetypeTableRecord
  2
BORDERX2
 70
     0
  3
Border (2x) ____  ____  .  ____
 72
    65
 73
     6
 40
3.5
 49
1.0
 74
     0
 49
-0.5
 74
     0
 49
1.0
 74
     0
 49
-0.5
 74
     0
 49
0.0
 74
     0
 49
-0.5
 74
     0
  0
LTYPE
  5
2A
100
AcDbSymbolTableRecord
100
AcDbLinetypeTableRecord
  2
CENTER2
 70
     0
  3
Center (.5x) ___ _ ___ _ ___ _ 
 72
    65
 73
     4
 40
1.125
 49
0.75
 74
     0
 49
-0.125
 74
     0
 49
0.125
 74
     0
 49
-0.125
 74
     0
  0
LTYPE
  5
2B
100
AcDbSymbolTableRecord
100
AcDbLinetypeTableRecord
  2
CENTERX2
 70
     0
  3
Center (2x) ________  __  _____
 72
    65
 73
     4
 40
4.0
 49
2.5
 74
     0
 49
-0.5
 74
     0
 49
0.5
 74
     0
 49
-0.5
 74
     0
  0
LTYPE
  5
2C
100
AcDbSymbolTableRecord
100
AcDbLinetypeTableRecord
  2
DASHDOT2
 70
     0
  3
Dash dot (.5x) _._._._._._._._.
 72
    65
 73
     4
 40
0.5
 49
0.25
 74
     0
 49
-0.125
 74
     0
 49
0.0
 74
     0
 49
-0.125
 74
     0
  0
LTYPE
  5
2D
100
AcDbSymbolTableRecord
100
AcDbLinetypeTableRecord
  2
DASHDOTX2
 70
     0
  3
Dash dot (2x) ____  .  ____  . 
 72
    65
 73
     4
 40
2.0
 49
1.0
 74
     0
 49
-0.5
 74
     0
 49
0.0
 74
     0
 49
-0.5
 74
     0
  0
LTYPE
  5
2E
100
AcDbSymbolTableRecord
100
AcDbLinetypeTableRecord
  2
DASHED2
 70
     0
  3
Dashed (.5x) _ _ _ _ _ _ _ _ _ 
 72
    65
 73
     2
 40
0.375
 49
0.25
 74
     0
 49
-0.125
 74
     0
  0
LTYPE
  5
2F
100
AcDbSymbolTableRecord
100
AcDbLinetypeTableRecord
  2
DASHEDX2
 70
     0
  3
Dashed (2x) ____  ____  ____  _
 72
    65
 73
     2
 40
1.5
 49
1.0
 74
     0
 49
-0.5
 74
     0
  0
LTYPE
  5
30
100
AcDbSymbolTableRecord
100
AcDbLinetypeTableRecord
  2
DIVIDE2
 70
     0
  3
Divide (.5x) __..__..__..__..__
 72
    65
 73
     6
 40
0.625
 49
0.25
 74
     0
 49
-0.125
 74
     0
 49
0.0
 74
     0
 49
-0.125
 74
     0
 49
0.0
 74
     0
 49
-0.125
 74
     0
  0
LTYPE
  5
31
100
AcDbSymbolTableRecord
100
AcDbLinetypeTableRecord
  2
DIVIDEX2
 70
     0
  3
Divide (2x) ________  .  .  ___
 72
    65
 73
     6
 40
2.5
 49
1.0
 74
     0
 49
-0.5
 74
     0
 49
0.0
 74
     0
 49
-0.5
 74
     0
 49
0.0
 74
     0
 49
-0.5
 74
     0
  0
LTYPE
  5
32
100
AcDbSymbolTableRecord
100
AcDbLinetypeTableRecord
  2
DOT2
 70
     0
  3
Dot (.5x) .....................
 72
    65
 73
     2
 40
0.125
 49
0.0
 74
     0
 49
-0.125
 74
     0
  0
LTYPE
  5
33
100
AcDbSymbolTableRecord
100
AcDbLinetypeTableRecord
  2
DOTX2
 70
     0
  3
Dot (2x) .  .  .  .  .  .  .  .
 72
    65
 73
     2
 40
0.5
 49
0.0
 74
     0
 49
-0.5
 74
     0
  0
LTYPE
  5
34
100
AcDbSymbolTableRecord
100
AcDbLinetypeTableRecord
  2
HIDDEN2
 70
     0
  3
Hidden (.5x) _ _ _ _ _ _ _ _ _ 
 72
    65
 73
     2
 40
0.1875
 49
0.125
 74
     0
 49
-0.0625
 74
     0
  0
LTYPE
  5
35
100
AcDbSymbolTableRecord
100
AcDbLinetypeTableRecord
  2
HIDDENX2
 70
     0
  3
Hidden (2x) ____ ____ ____ ____
 72
    65
 73
     2
 40
0.75
 49
0.5
 74
     0
 49
-0.25
 74
     0
  0
LTYPE
  5
36
100
AcDbSymbolTableRecord
100
AcDbLinetypeTableRecord
  2
PHANTOM2
 70
     0
  3
Phantom (.5x) ___ _ _ ___ _ _ _
 72
    65
 73
     6
 40
1.25
 49
0.625
 74
     0
 49
-0.125
 74
     0
 49
0.125
 74
     0
 49
-0.125
 74
     0
 49
0.125
 74
     0
 49
-0.125
 74
     0
  0
LTYPE
  5
37
100
AcDbSymbolTableRecord
100
AcDbLinetypeTableRecord
  2
PHANTOMX2
 70
     0
  3
Phantom (2x) ____________    __
 72
    65
 73
     6
 40
5.0
 49
2.5
 74
     0
 49
-0.5
 74
     0
 49
0.5
 74
     0
 49
-0.5
 74
     0
 49
0.5
 74
     0
 49
-0.5
 74
     0
  0
LTYPE
  5
38
100
AcDbSymbolTableRecord
100
AcDbLinetypeTableRecord
  2
DOTS
 70
     0
  3
Dots - - - - - - - - - - - - - 
 72
    65
 73
     2
 40
0.1
 49
0.05
 74
     0
 49
-0.05
 74
     0
  0
LTYPE
  5
39
100
AcDbSymbolTableRecord
100
AcDbLinetypeTableRecord
  2
ACAD_ISO02W100
 70
     0
  3
__ __ __ __ __ __ __ __ __ __ _
 72
    65
 73
     2
 40
15.0
 49
12.0
 74
     0
 49
-3.0
 74
     0
  0
LTYPE
  5
3A
100
AcDbSymbolTableRecord
100
AcDbLinetypeTableRecord
  2
ACAD_ISO03W100
 70
     0
  3
__    __    __    __    __    _
 72
    65
 73
     2
 40
30.0
 49
12.0
 74
     0
 49
-18.0
 74
     0
  0
LTYPE
  5
3B
100
AcDbSymbolTableRecord
100
AcDbLinetypeTableRecord
  2
ACAD_ISO04W100
 70
     0
  3
____ . ____ . ____ . ____ . ___
 72
    65
 73
     4
 40
30.5
 49
24.0
 74
     0
 49
-3.0
 74
     0
 49
0.5
 74
     0
 49
-3.0
 74
     0
  0
LTYPE
  5
3C
100
AcDbSymbolTableRecord
100
AcDbLinetypeTableRecord
  2
ACAD_ISO05W100
 70
     0
  3
____ .. ____ .. ____ .. ____ ..
 72
    65
 73
     6
 40
34.0
 49
24.0
 74
     0
 49
-3.0
 74
     0
 49
0.5
 74
     0
 49
-3.0
 74
     0
 49
0.5
 74
     0
 49
-3.0
 74
     0
  0
LTYPE
  5
3D
100
AcDbSymbolTableRecord
100
AcDbLinetypeTableRecord
  2
ACAD_ISO06W100
 70
     0
  3
____ ... ____ ... ____ ... ____
 72
    65
 73
     6
 40
34.0
 49
24.0
 74
     0
 49
-3.0
 74
     0
 49
0.5
 74
     0
 49
-3.0
 74
     0
 49
0.5
 74
     0
 49
-3.0
 74
     0
  0
LTYPE
  5
3E
100
AcDbSymbolTableRecord
100
AcDbLinetypeTableRecord
  2
ACAD_ISO07W100
 70
     0
  3
. . . . . . . . . . . . . . . .
 72
    65
 73
     2
 40
3.5
 49
0.5
 74
     0
 49
-3.0
 74
     0
  0
LTYPE
  5
3F
100
AcDbSymbolTableRecord
100
AcDbLinetypeTableRecord
  2
ACAD_ISO08W100
 70
     0
  3
____ __ ____ __ ____ __ ____ __
 72
    65
 73
     4
 40
36.0
 49
24.0
 74
     0
 49
-3.0
 74
     0
 49
6.0
 74
     0
 49
-3.0
 74
     0
  0
LTYPE
  5
40
100
AcDbSymbolTableRecord
100
AcDbLinetypeTableRecord
  2
ACAD_ISO09W100
 70
     0
  3
____ __ __ ____ __ __ ____ __ _
 72
    65
 73
     6
 40
45.0
 49
24.0
 74
     0
 49
-3.0
 74
     0
 49
6.0
 74
     0
 49
-3.0
 74
     0
 49
6.0
 74
     0
 49
-3.0
 74
     0
  0
LTYPE
  5
41
100
AcDbSymbolTableRecord
100
AcDbLinetypeTableRecord
  2
ACAD_ISO10W100
 70
     0
  3
__ . __ . __ . __ . __ . __ . _
 72
    65
 73
     4
 40
18.5
 49
12.0
 74
     0
 49
-3.0
 74
     0
 49
0.5
 74
     0
 49
-3.0
 74
     0
  0
LTYPE
  5
42
100
AcDbSymbolTableRecord
100
AcDbLinetypeTableRecord
  2
ACAD_ISO11W100
 70
     0
  3
__ __ . __ __ . __ __ . __ __ .
 72
    65
 73
     6
 40
33.5
 49
12.0
 74
     0
 49
-3.0
 74
     0
 49
12.0
 74
     0
 49
-3.0
 74
     0
 49
0.5
 74
     0
 49
-3.0
 74
     0
  0
LTYPE
  5
43
100
AcDbSymbolTableRecord
100
AcDbLinetypeTableRecord
  2
ACAD_ISO12W100
 70
     0
  3
__ . . __ . . __ . . __ . . __ 
 72
    65
 73
     6
 40
22.0
 49
12.0
 74
     0
 49
-3.0
 74
     0
 49
0.5
 74
     0
 49
-3.0
 74
     0
 49
0.5
 74
     0
 49
-3.0
 74
     0
  0
LTYPE
  5
44
100
AcDbSymbolTableRecord
100
AcDbLinetypeTableRecord
  2
ACAD_ISO13W100
 70
     0
  3
__ __ . . __ __ . . __ __ . . _
 72
    65
 73
     6
 40
33.5
 49
12.0
 74
     0
 49
-3.0
 74
     0
 49
12.0
 74
     0
 49
-3.0
 74
     0
 49
0.5
 74
     0
 49
-3.0
 74
     0
  0
LTYPE
  5
45
100
AcDbSymbolTableRecord
100
AcDbLinetypeTableRecord
  2
ACAD_ISO14W100
 70
     0
  3
__ . . . __ . . . __ . . . __ .
 72
    65
 73
     6
 40
22.0
 49
12.0
 74
     0
 49
-3.0
 74
     0
 49
0.5
 74
     0
 49
-3.0
 74
     0
 49
0.5
 74
     0
 49
-3.0
 74
     0
  0
LTYPE
  5
46
100
AcDbSymbolTableRecord
100
AcDbLinetypeTableRecord
  2
ACAD_ISO15W100
 70
     0
  3
__ __ . . . __ __ . . . __ __ .
 72
    65
 73
     6
 40
33.5
 49
12.0
 74
     0
 49
-3.0
 74
     0
 49
12.0
 74
     0
 49
-3.0
 74
     0
 49
0.5
 74
     0
 49
-3.0
 74
     0
  0
ENDTAB
  0
TABLE
  2
LAYER
  5
2
100
AcDbSymbolTable
 70
     5
  0
LAYER
  5
E
100
AcDbSymbolTableRecord
100
AcDbLayerTableRecord
  2
0
 70
     0
 62
     7
  6
CONTINUOUS
  0
LAYER
  5
47
100
AcDbSymbolTableRecord
100
AcDbLayerTableRecord
  2
ARMOUR
 70
     4
 62
     7
  6
CONTINUOUS
  0
LAYER
  5
48
100
AcDbSymbolTableRecord
100
AcDbLayerTableRecord
  2
AXES
 70
     0
 62
     1
  6
CONTINUOUS
  0
LAYER
  5
49
100
AcDbSymbolTableRecord
100
AcDbLayerTableRecord
  2
COMMENTS
 70
     0
 62
    94
  6
CONTINUOUS
  0
LAYER
  5
4A
100
AcDbSymbolTableRecord
100
AcDbLayerTableRecord
  2
MOUNTS
 70
     0
 62
     7
  6
CONTINUOUS
  0
ENDTAB
  0
TABLE
  2
STYLE
  5
3
100
AcDbSymbolTable
 70
     5
  0
STYLE
  5
F
100
AcDbSymbolTableRecord
100
AcDbTextStyleTableRecord
  2
STANDARD
 70
     0
 40
0.0
 41
1.0
 50
0.0
 71
     0
 42
321.225654887684
  3
txt
  4

  0
STYLE
  5
4B
100
AcDbSymbolTableRecord
100
AcDbTextStyleTableRecord
  2
ITALIC
 70
     0
 40
0.0
 41
1.0
 50
0.0
 71
     0
 42
321.225654887684
  3
ITALIC
  4

  0
STYLE
  5
4C
100
AcDbSymbolTableRecord
100
AcDbTextStyleTableRecord
  2
SIMPLEX
 70
     0
 40
0.0
 41
1.0
 50
0.0
 71
     0
 42
321.225654887684
  3
SIMPLEX
  4

  0
STYLE
  5
4D
100
AcDbSymbolTableRecord
100
AcDbTextStyleTableRecord
  2
COMPLEX
 70
     0
 40
0.0
 41
1.0
 50
0.0
 71
     0
 42
321.225654887684
  3
COMPLEX
  4

  0
STYLE
  5
E3
100
AcDbSymbolTableRecord
100
AcDbTextStyleTableRecord
  2
ARIAL
 70
     0
 40
0.0
 41
1.0
 50
0.0
 71
     0
 42
321.225654887684
  3
ARIAL.TTF
  4

1001
ACAD
1000
Arial
1071
        0
  0
ENDTAB
  0
TABLE
  2
VIEW
  5
6
100
AcDbSymbolTable
 70
     0
  0
ENDTAB
  0
TABLE
  2
UCS
  5
7
100
AcDbSymbolTable
 70
     0
  0
ENDTAB
  0
TABLE
  2
APPID
  5
9
100
AcDbSymbolTable
 70
     1
  0
APPID
  5
10
100
AcDbSymbolTableRecord
100
AcDbRegAppTableRecord
  2
ACAD
 70
     0
  0
ENDTAB
  0
TABLE
  2
DIMSTYLE
  5
A
100
AcDbSymbolTable
 70
     1
  0
DIMSTYLE
105
1D
100
AcDbSymbolTableRecord
100
AcDbDimStyleTableRecord
  2
STANDARD
 70
     0
  3

  4

  5

  6

  7

 40
1.0
 41
0.18
 42
0.0625
 43
0.38
 44
0.18
 45
0.0
 46
0.0
 47
0.0
 48
0.0
140
0.18
141
0.09
142
0.0
143
25.4
144
1.0
145
0.0
146
1.0
147
0.09
 71
     0
 72
     0
 73
     1
 74
     1
 75
     0
 76
     0
 77
     0
 78
     0
170
     0
171
     2
172
     0
173
     0
174
     0
175
     0
176
     0
177
     0
178
     0
270
     2
271
     4
272
     4
273
     2
274
     2
340
F
275
     0
280
     0
281
     0
282
     0
283
     1
284
     0
285
     0
286
     0
287
     3
288
     0
  0
ENDTAB
  0
TABLE
  2
BLOCK_RECORD
  5
1
100
AcDbSymbolTable
 70
     0
  0
BLOCK_RECORD
  5
18
100
AcDbSymbolTableRecord
100
AcDbBlockTableRecord
  2
*MODEL_SPACE
  0
BLOCK_RECORD
  5
15
100
AcDbSymbolTableRecord
100
AcDbBlockTableRecord
  2
*PAPER_SPACE
  0
ENDTAB
  0
ENDSEC
  0
SECTION
  2
BLOCKS
  0
BLOCK
  5
19
100
AcDbEntity
  8
0
100
AcDbBlockBegin
  2
*MODEL_SPACE
 70
     0
 10
0.0
 20
0.0
 30
0.0
  3
*MODEL_SPACE
  1

  0
ENDBLK
  5
1A
100
AcDbEntity
  8
0
100
AcDbBlockEnd
  0
BLOCK
  5
16
100
AcDbEntity
 67
     1
  8
0
100
AcDbBlockBegin
  2
*PAPER_SPACE
 70
     0
 10
0.0
 20
0.0
 30
0.0
  3
*PAPER_SPACE
  1

  0
ENDBLK
  5
17
100
AcDbEntity
 67
     1
  8
0
100
AcDbBlockEnd
  0
ENDSEC
  0
SECTION
  2
ENTITIES
  0
LINE
  5
4E
100
AcDbEntity
  8
ARMOUR
  6
CONTINUOUS
 62
     7
100
AcDbLine
 10
9891.824035222203
 20
-2841.596270492409
 30
0.0
 11
14824.2628485077
 21
-2841.59627049241
 31
0.0
  0
LINE
  5
4F
100
AcDbEntity
  8
ARMOUR
  6
CONTINUOUS
 62
     7
100
AcDbLine
 10
10232.79197965872
 20
-3328.596270492408
 30
0.0
 11
12039.2628485077
 21
-3456.59627049241
 31
0.0
  0
LINE
  5
50
100
AcDbEntity
  8
ARMOUR
  6
CONTINUOUS
 62
     7
100
AcDbLine
 10
9861.11944238295
 20
-3328.596270492409
 30
0.0
 11
9938.252664820998
 21
-2841.596270492409
 31
0.0
  0
LINE
  5
51
100
AcDbEntity
  8
ARMOUR
  6
CONTINUOUS
 62
     7
100
AcDbLine
 10
9830.745488609309
 20
-3328.596270492409
 30
0.0
 11
9907.878711047359
 21
-2841.596270492409
 31
0.0
  0
LINE
  5
52
100
AcDbEntity
  8
ARMOUR
  6
CONTINUOUS
 62
     7
100
AcDbLine
 10
9746.791979658723
 20
-3315.299340963989
 30
0.0
 11
9830.745488609309
 21
-3328.596270492409
 31
0.0
  0
LINE
  5
53
100
AcDbEntity
  8
ARMOUR
  6
CONTINUOUS
 62
     7
100
AcDbLine
 10
9830.745488609309
 20
-3328.596270492409
 30
0.0
 11
10232.79197965872
 21
-3328.596270492408
 31
0.0
  0
LINE
  5
54
100
AcDbEntity
  8
ARMOUR
  6
CONTINUOUS
 62
     7
100
AcDbLine
 10
9746.791979658723
 20
-3315.299340963989
 30
0.0
 11
9830.484418455244
 21
-2786.88607874559
 31
0.0
  0
LINE
  5
55
100
AcDbEntity
  8
ARMOUR
  6
CONTINUOUS
 62
     7
100
AcDbLine
 10
9850.79138450404
 20
-2816.516728963444
 30
0.0
 11
9855.484418455244
 21
-2786.88607874559
 31
0.0
  0
LINE
  5
56
100
AcDbEntity
  8
ARMOUR
  6
CONTINUOUS
 62
     7
100
AcDbLine
 10
9855.484418455244
 20
-2786.88607874559
 30
0.0
 11
9877.355362933441
 21
-2790.742516350673
 31
0.0
  0
LINE
  5
57
100
AcDbEntity
  8
ARMOUR
  6
CONTINUOUS
 62
     7
100
AcDbLine
 10
9825.791384504039
 20
-2816.516728963444
 30
0.0
 11
9850.79138450404
 21
-2816.516728963444
 31
0.0
  0
LINE
  5
58
100
AcDbEntity
  8
ARMOUR
  6
CONTINUOUS
 62
     7
100
AcDbLine
 10
9850.79138450404
 20
-2816.516728963444
 30
0.0
 11
9886.554201400851
 21
-2822.822678488489
 31
0.0
  0
LINE
  5
59
100
AcDbEntity
  8
ARMOUR
  6
CONTINUOUS
 62
     7
100
AcDbLine
 10
9877.355362933441
 20
-2790.742516350673
 30
0.0
 11
9891.928826072764
 21
-2841.56622219954
 31
0.0
  0
LINE
  5
5A
100
AcDbEntity
  8
ARMOUR
  6
CONTINUOUS
 62
     7
100
AcDbLine
 10
9830.484418455244
 20
-2786.88607874559
 30
0.0
 11
9855.484418455244
 21
-2786.88607874559
 31
0.0
  0
LINE
  5
5B
100
AcDbEntity
  8
ARMOUR
  6
CONTINUOUS
 62
     7
100
AcDbLine
 10
14637.55885673573
 20
-4020.398881338582
 30
0.0
 11
14827.02538921763
 21
-2824.154274900749
 31
0.0
  0
LINE
  5
5C
100
AcDbEntity
  8
ARMOUR
  6
CONTINUOUS
 62
     7
100
AcDbLine
 10
12039.2628485077
 20
-3456.59627049241
 30
0.0
 11
14713.19437832914
 21
-3542.854992314957
 31
0.0
  0
LINE
  5
5D
100
AcDbEntity
  8
ARMOUR
  6
CONTINUOUS
 62
    84
100
AcDbLine
 10
14779.30602743655
 20
-2816.596270492409
 30
0.0
 11
14827.02538921763
 21
-2824.154274900749
 31
0.0
  0
LINE
  5
5E
100
AcDbEntity
  8
ARMOUR
  6
CONTINUOUS
 62
     7
100
AcDbLine
 10
14779.30602743655
 20
-2841.596270492409
 30
0.0
 11
14779.30602743655
 21
-2816.596270492409
 31
0.0
  0
LWPOLYLINE
  5
5F
100
AcDbEntity
  8
MOUNTS
  6
CONTINUOUS
100
AcDbPolyline
 90
        4
 70
     1
 43
0.0
 10
11750.11483974109
 20
-2272.312026477326
 10
11785.1148397411
 20
-2272.312026477326
 10
11785.1148397411
 20
-2237.312026477326
 10
11750.11483974109
 20
-2237.312026477326
  0
LINE
  5
60
100
AcDbEntity
  8
MOUNTS
  6
CONTINUOUS
100
AcDbLine
 10
11785.11483974115
 20
-2242.312026477168
 30
0.0
 11
11750.11483974121
 21
-2242.312026477167
 31
0.0
  0
LWPOLYLINE
  5
61
100
AcDbEntity
  8
MOUNTS
  6
CONTINUOUS
100
AcDbPolyline
 90
        4
 70
     1
 43
0.0
 10
9814.853515089948
 20
-3143.009695919475
 10
9849.799621695648
 20
-3144.951250220349
 10
9851.74117599652
 20
-3110.005143614651
 10
9816.795069390822
 20
-3108.063589313777
  0
CIRCLE
  5
62
100
AcDbEntity
  8
MOUNTS
  6
CONTINUOUS
100
AcDbCircle
 10
9833.297345543236
 20
-3126.507419767063
 30
0.0
 40
7.499999999999999
  0
LINE
  5
63
100
AcDbEntity
  8
MOUNTS
  6
CONTINUOUS
100
AcDbLine
 10
9851.463811096454
 20
-3114.997444558167
 30
0.0
 11
9816.517704490815
 21
-3113.055890257296
 31
0.0
  0
LINE
  5
64
100
AcDbEntity
  8
MOUNTS
  6
CONTINUOUS
100
AcDbLine
 10
11883.86083239933
 20
-2272.312026477211
 30
0.0
 11
11908.86083239932
 21
-2272.312026477285
 31
0.0
  0
LINE
  5
65
100
AcDbEntity
  8
MOUNTS
  6
CONTINUOUS
100
AcDbLine
 10
11908.86083239933
 20
-2242.312026477167
 30
0.0
 11
11903.86083239933
 21
-2237.312026477167
 31
0.0
  0
LINE
  5
66
100
AcDbEntity
  8
MOUNTS
  6
CONTINUOUS
100
AcDbLine
 10
11903.86083239933
 20
-2237.312026477167
 30
0.0
 11
11883.86083239933
 21
-2237.312026477277
 31
0.0
  0
LINE
  5
67
100
AcDbEntity
  8
MOUNTS
  6
CONTINUOUS
100
AcDbLine
 10
11883.86083239932
 20
-2237.312026477284
 30
0.0
 11
11883.86083239932
 21
-2272.312026477285
 31
0.0
  0
CIRCLE
  5
68
100
AcDbEntity
  8
MOUNTS
  6
CONTINUOUS
100
AcDbCircle
 10
11767.6148397411
 20
-2254.812026477326
 30
0.0
 40
9.999999999999998
  0
CIRCLE
  5
69
100
AcDbEntity
  8
MOUNTS
  6
CONTINUOUS
100
AcDbCircle
 10
11767.6148397411
 20
-2254.812026477326
 30
0.0
 40
7.999999999999999
  0
LINE
  5
6A
100
AcDbEntity
  8
MOUNTS
  6
DOT
100
AcDbLine
 10
11883.86083239933
 20
-2262.812026477337
 30
0.0
 11
11906.8608324007
 21
-2262.812026477365
 31
0.0
  0
LINE
  5
6B
100
AcDbEntity
  8
MOUNTS
  6
DOT
100
AcDbLine
 10
11883.86083239933
 20
-2246.812026477341
 30
0.0
 11
11906.86083240032
 21
-2246.81202647727
 31
0.0
  0
LINE
  5
6C
100
AcDbEntity
  8
MOUNTS
  6
CONTINUOUS
100
AcDbLine
 10
11908.86083239932
 20
-2272.312026477285
 30
0.0
 11
11908.86083239939
 21
-2264.812026476057
 31
0.0
  0
LINE
  5
6D
100
AcDbEntity
  8
MOUNTS
  6
CONTINUOUS
100
AcDbLine
 10
11908.86083239961
 20
-2244.812026477978
 30
0.0
 11
11908.86083239933
 21
-2242.312026477167
 31
0.0
  0
LINE
  5
6E
100
AcDbEntity
  8
MOUNTS
  6
DOT
100
AcDbLine
 10
11906.86083239961
 20
-2246.81202647727
 30
0.0
 11
11908.86083239961
 21
-2244.812026477269
 31
0.0
  0
LINE
  5
6F
100
AcDbEntity
  8
MOUNTS
  6
DOT
100
AcDbLine
 10
11906.86083239939
 20
-2262.812026477365
 30
0.0
 11
11908.86083239939
 21
-2264.812026477364
 31
0.0
  0
LINE
  5
70
100
AcDbEntity
  8
MOUNTS
100
AcDbLine
 10
11908.86083239961
 20
-2244.812026477269
 30
0.0
 11
11908.86083239961
 21
-2264.812026477364
 31
0.0
  0
LINE
  5
71
100
AcDbEntity
  8
ARMOUR
  6
CONTINUOUS
 62
     7
100
AcDbLine
 10
9891.824035222203
 20
-1178.074691377164
 30
0.0
 11
14824.2628485077
 21
-1178.074691377166
 31
0.0
  0
LINE
  5
72
100
AcDbEntity
  8
ARMOUR
  6
CONTINUOUS
 62
     7
100
AcDbLine
 10
10232.79197965872
 20
-1665.074691377164
 30
0.0
 11
12039.2628485077
 21
-1793.074691377165
 31
0.0
  0
LINE
  5
73
100
AcDbEntity
  8
ARMOUR
  6
CONTINUOUS
 62
     7
100
AcDbLine
 10
9861.11944238295
 20
-1665.074691377165
 30
0.0
 11
9938.252664820998
 21
-1178.074691377164
 31
0.0
  0
LINE
  5
74
100
AcDbEntity
  8
ARMOUR
  6
CONTINUOUS
 62
     7
100
AcDbLine
 10
9830.745488609309
 20
-1665.074691377165
 30
0.0
 11
9907.878711047359
 21
-1178.074691377164
 31
0.0
  0
LINE
  5
75
100
AcDbEntity
  8
ARMOUR
  6
CONTINUOUS
 62
     7
100
AcDbLine
 10
9746.791979658723
 20
-1651.777761848745
 30
0.0
 11
9830.745488609309
 21
-1665.074691377165
 31
0.0
  0
LINE
  5
76
100
AcDbEntity
  8
ARMOUR
  6
CONTINUOUS
 62
     7
100
AcDbLine
 10
9830.745488609309
 20
-1665.074691377165
 30
0.0
 11
10232.79197965872
 21
-1665.074691377164
 31
0.0
  0
LINE
  5
77
100
AcDbEntity
  8
ARMOUR
  6
CONTINUOUS
 62
     7
100
AcDbLine
 10
9746.791979658723
 20
-1651.777761848745
 30
0.0
 11
9830.484418455244
 21
-1123.364499630346
 31
0.0
  0
LINE
  5
78
100
AcDbEntity
  8
ARMOUR
  6
CONTINUOUS
 62
     7
100
AcDbLine
 10
9850.79138450404
 20
-1152.9951498482
 30
0.0
 11
9855.484418455244
 21
-1123.364499630346
 31
0.0
  0
LINE
  5
79
100
AcDbEntity
  8
ARMOUR
  6
CONTINUOUS
 62
     7
100
AcDbLine
 10
9855.484418455244
 20
-1123.364499630346
 30
0.0
 11
9877.355362933441
 21
-1127.220937235429
 31
0.0
  0
LINE
  5
7A
100
AcDbEntity
  8
ARMOUR
  6
CONTINUOUS
 62
     7
100
AcDbLine
 10
9825.791384504039
 20
-1152.9951498482
 30
0.0
 11
9850.79138450404
 21
-1152.9951498482
 31
0.0
  0
LINE
  5
7B
100
AcDbEntity
  8
ARMOUR
  6
CONTINUOUS
 62
     7
100
AcDbLine
 10
9850.79138450404
 20
-1152.9951498482
 30
0.0
 11
9886.554201400851
 21
-1159.301099373245
 31
0.0
  0
LINE
  5
7C
100
AcDbEntity
  8
ARMOUR
  6
CONTINUOUS
 62
     7
100
AcDbLine
 10
9877.355362933441
 20
-1127.220937235429
 30
0.0
 11
9891.928826072764
 21
-1178.044643084295
 31
0.0
  0
LINE
  5
7D
100
AcDbEntity
  8
ARMOUR
  6
CONTINUOUS
 62
     7
100
AcDbLine
 10
9830.484418455244
 20
-1123.364499630346
 30
0.0
 11
9855.484418455244
 21
-1123.364499630346
 31
0.0
  0
LINE
  5
7E
100
AcDbEntity
  8
ARMOUR
  6
CONTINUOUS
 62
     7
100
AcDbLine
 10
14637.55885673573
 20
-2356.877302223338
 30
0.0
 11
14827.02538921763
 21
-1160.632695785505
 31
0.0
  0
LINE
  5
7F
100
AcDbEntity
  8
ARMOUR
  6
CONTINUOUS
 62
     7
100
AcDbLine
 10
12039.2628485077
 20
-1793.074691377165
 30
0.0
 11
14713.19437832914
 21
-1879.333413199713
 31
0.0
  0
LINE
  5
80
100
AcDbEntity
  8
ARMOUR
  6
CONTINUOUS
 62
    84
100
AcDbLine
 10
14779.30602743655
 20
-1153.074691377164
 30
0.0
 11
14827.02538921763
 21
-1160.632695785505
 31
0.0
  0
LINE
  5
81
100
AcDbEntity
  8
ARMOUR
  6
CONTINUOUS
 62
     7
100
AcDbLine
 10
14779.30602743655
 20
-1178.074691377165
 30
0.0
 11
14779.30602743655
 21
-1153.074691377164
 31
0.0
  0
LWPOLYLINE
  5
82
100
AcDbEntity
  8
MOUNTS
  6
CONTINUOUS
100
AcDbPolyline
 90
        4
 70
     1
 43
0.0
 10
9827.204024762256
 20
-1483.719114357294
 10
9862.150131367954
 20
-1485.660668658168
 10
9864.09168566883
 20
-1450.714562052471
 10
9829.14557906313
 20
-1448.773007751596
  0
CIRCLE
  5
83
100
AcDbEntity
  8
MOUNTS
  6
CONTINUOUS
100
AcDbCircle
 10
9845.647855215544
 20
-1467.216838204882
 30
0.0
 40
7.499999999999999
  0
LINE
  5
84
100
AcDbEntity
  8
MOUNTS
  6
CONTINUOUS
100
AcDbLine
 10
9863.81432076876
 20
-1455.706862995986
 30
0.0
 11
9828.868214163122
 21
-1453.765308695114
 31
0.0
  0
LINE
  5
85
100
AcDbEntity
  8
MOUNTS
  6
CONTINUOUS
100
AcDbLine
 10
14716.41059552362
 20
-1724.071794188242
 30
0.0
 11
14681.46448891798
 21
-1722.130239887371
 31
0.0
  0
LINE
  5
86
100
AcDbEntity
  8
AXES
100
AcDbLine
 10
9664.282126940237
 20
-1454.365917872005
 30
0.0
 11
11980.29592773727
 21
-1618.470289336854
 31
0.0
  0
LWPOLYLINE
  5
87
100
AcDbEntity
  8
MOUNTS
  6
CONTINUOUS
100
AcDbPolyline
 90
        4
 70
     1
 43
0.0
 10
10166.35371852738
 20
-1507.750036499756
 10
10201.29982513308
 20
-1509.69159080063
 10
10203.24137943396
 20
-1474.745484194933
 10
10168.29527282826
 20
-1472.803929894059
  0
CIRCLE
  5
88
100
AcDbEntity
  8
MOUNTS
  6
CONTINUOUS
100
AcDbCircle
 10
10184.79754898067
 20
-1491.247760347344
 30
0.0
 40
7.499999999999999
  0
LINE
  5
89
100
AcDbEntity
  8
MOUNTS
  6
CONTINUOUS
100
AcDbLine
 10
10202.96401453389
 20
-1479.737785138449
 30
0.0
 11
10168.01790792825
 21
-1477.796230837577
 31
0.0
  0
LWPOLYLINE
  5
8A
100
AcDbEntity
  8
MOUNTS
  6
CONTINUOUS
100
AcDbPolyline
 90
        4
 70
     1
 43
0.0
 10
10505.50341229251
 20
-1531.78095864222
 10
10540.44951889821
 20
-1533.722512943093
 10
10542.39107319909
 20
-1498.776406337396
 10
10507.44496659339
 20
-1496.834852036522
  0
CIRCLE
  5
8B
100
AcDbEntity
  8
MOUNTS
  6
CONTINUOUS
100
AcDbCircle
 10
10523.9472427458
 20
-1515.278682489807
 30
0.0
 40
7.499999999999999
  0
LINE
  5
8C
100
AcDbEntity
  8
MOUNTS
  6
CONTINUOUS
100
AcDbLine
 10
10542.11370829902
 20
-1503.768707280912
 30
0.0
 11
10507.16760169338
 21
-1501.82715298004
 31
0.0
  0
LWPOLYLINE
  5
8D
100
AcDbEntity
  8
MOUNTS
  6
CONTINUOUS
100
AcDbPolyline
 90
        4
 70
     1
 43
0.0
 10
10844.65310605765
 20
-1555.811880784682
 10
10879.59921266335
 20
-1557.753435085556
 10
10881.54076696422
 20
-1522.807328479859
 10
10846.59466035852
 20
-1520.865774178985
  0
CIRCLE
  5
8E
100
AcDbEntity
  8
MOUNTS
  6
CONTINUOUS
100
AcDbCircle
 10
10863.09693651094
 20
-1539.30960463227
 30
0.0
 40
7.499999999999999
  0
LINE
  5
8F
100
AcDbEntity
  8
MOUNTS
  6
CONTINUOUS
100
AcDbLine
 10
10881.26340206415
 20
-1527.799629423375
 30
0.0
 11
10846.31729545851
 21
-1525.858075122503
 31
0.0
  0
LWPOLYLINE
  5
90
100
AcDbEntity
  8
MOUNTS
  6
CONTINUOUS
100
AcDbPolyline
 90
        4
 70
     1
 43
0.0
 10
10944.40301598857
 20
-1562.879799061877
 10
10979.34912259427
 20
-1564.821353362751
 10
10981.29067689514
 20
-1529.875246757054
 10
10946.34457028944
 20
-1527.93369245618
  0
CIRCLE
  5
91
100
AcDbEntity
  8
MOUNTS
  6
CONTINUOUS
100
AcDbCircle
 10
10962.84684644186
 20
-1546.377522909465
 30
0.0
 40
7.499999999999999
  0
LINE
  5
92
100
AcDbEntity
  8
MOUNTS
  6
CONTINUOUS
100
AcDbLine
 10
10981.01331199508
 20
-1534.86754770057
 30
0.0
 11
10946.06720538944
 21
-1532.925993399698
 31
0.0
  0
LWPOLYLINE
  5
93
100
AcDbEntity
  8
MOUNTS
  6
CONTINUOUS
100
AcDbPolyline
 90
        4
 70
     1
 43
0.0
 10
11283.5527097537
 20
-1586.91072120434
 10
11318.4988163594
 20
-1588.852275505214
 10
11320.44037066027
 20
-1553.906168899517
 10
11285.49426405458
 20
-1551.964614598643
  0
CIRCLE
  5
94
100
AcDbEntity
  8
MOUNTS
  6
CONTINUOUS
100
AcDbCircle
 10
11301.99654020699
 20
-1570.408445051928
 30
0.0
 40
7.499999999999999
  0
LINE
  5
95
100
AcDbEntity
  8
MOUNTS
  6
CONTINUOUS
100
AcDbLine
 10
11320.16300576021
 20
-1558.898469843033
 30
0.0
 11
11285.21689915457
 21
-1556.956915542161
 31
0.0
  0
LWPOLYLINE
  5
96
100
AcDbEntity
  8
MOUNTS
  6
CONTINUOUS
100
AcDbPolyline
 90
        4
 70
     1
 43
0.0
 10
11622.70240351883
 20
-1610.941643346803
 10
11657.64851012453
 20
-1612.883197647677
 10
11659.5900644254
 20
-1577.93709104198
 10
11624.64395781971
 20
-1575.995536741106
  0
CIRCLE
  5
97
100
AcDbEntity
  8
MOUNTS
  6
CONTINUOUS
100
AcDbCircle
 10
11641.14623397212
 20
-1594.439367194391
 30
0.0
 40
7.499999999999999
  0
LINE
  5
98
100
AcDbEntity
  8
MOUNTS
  6
CONTINUOUS
100
AcDbLine
 10
11659.31269952534
 20
-1582.929391985496
 30
0.0
 11
11624.3665929197
 21
-1580.987837684624
 31
0.0
  0
LWPOLYLINE
  5
99
100
AcDbEntity
  8
MOUNTS
  6
CONTINUOUS
100
AcDbPolyline
 90
        4
 70
     1
 43
0.0
 10
11961.85209728396
 20
-1634.972565489266
 10
11996.79820388966
 20
-1636.91411979014
 10
11998.73975819054
 20
-1601.968013184443
 10
11963.79365158484
 20
-1600.026458883569
  0
CIRCLE
  5
9A
100
AcDbEntity
  8
MOUNTS
  6
CONTINUOUS
100
AcDbCircle
 10
11980.29592773725
 20
-1618.470289336854
 30
0.0
 40
7.499999999999999
  0
LINE
  5
9B
100
AcDbEntity
  8
MOUNTS
  6
CONTINUOUS
100
AcDbLine
 10
11998.46239329047
 20
-1606.960314127959
 30
0.0
 11
11963.51628668483
 21
-1605.018759827087
 31
0.0
  0
LWPOLYLINE
  5
9C
100
AcDbEntity
  8
MOUNTS
  6
CONTINUOUS
100
AcDbPolyline
 90
        4
 70
     1
 43
0.0
 10
12061.6817647215
 20
-1640.80673203732
 10
12096.6278713272
 20
-1642.748286338194
 10
12098.56942562808
 20
-1607.802179732497
 10
12063.62331902238
 20
-1605.860625431623
  0
CIRCLE
  5
9D
100
AcDbEntity
  8
MOUNTS
  6
CONTINUOUS
100
AcDbCircle
 10
12080.12559517479
 20
-1624.304455884908
 30
0.0
 40
7.499999999999999
  0
LINE
  5
9E
100
AcDbEntity
  8
MOUNTS
  6
CONTINUOUS
100
AcDbLine
 10
12098.29206072801
 20
-1612.794480676013
 30
0.0
 11
12063.34595412237
 21
-1610.852926375141
 31
0.0
  0
LINE
  5
9F
100
AcDbEntity
  8
AXES
100
AcDbLine
 10
12080.12559517479
 20
-1624.304455884908
 30
0.0
 11
14831.45381062397
 21
-1713.059927942491
 31
0.0
  0
LWPOLYLINE
  5
A0
100
AcDbEntity
  8
MOUNTS
  6
CONTINUOUS
100
AcDbPolyline
 90
        4
 70
     1
 43
0.0
 10
12481.4633982449
 20
-1654.348524992178
 10
12516.40950485059
 20
-1656.290079293052
 10
12518.35105915147
 20
-1621.343972687355
 10
12483.40495254577
 20
-1619.402418386481
  0
CIRCLE
  5
A1
100
AcDbEntity
  8
MOUNTS
  6
CONTINUOUS
100
AcDbCircle
 10
12499.90722869818
 20
-1637.846248839766
 30
0.0
 40
7.499999999999999
  0
LINE
  5
A2
100
AcDbEntity
  8
MOUNTS
  6
CONTINUOUS
100
AcDbLine
 10
12518.0736942514
 20
-1626.33627363087
 30
0.0
 11
12483.12758764576
 21
-1624.394719329998
 31
0.0
  0
LWPOLYLINE
  5
A3
100
AcDbEntity
  8
MOUNTS
  6
CONTINUOUS
100
AcDbPolyline
 90
        4
 70
     1
 43
0.0
 10
12901.24503176829
 20
-1667.890317947035
 10
12936.19113837398
 20
-1669.83187224791
 10
12938.13269267486
 20
-1634.885765642213
 10
12903.18658606916
 20
-1632.944211341339
  0
CIRCLE
  5
A4
100
AcDbEntity
  8
MOUNTS
  6
CONTINUOUS
100
AcDbCircle
 10
12919.68886222157
 20
-1651.388041794624
 30
0.0
 40
7.499999999999999
  0
LINE
  5
A5
100
AcDbEntity
  8
MOUNTS
  6
CONTINUOUS
100
AcDbLine
 10
12937.85532777479
 20
-1639.878066585728
 30
0.0
 11
12902.90922116915
 21
-1637.936512284857
 31
0.0
  0
LWPOLYLINE
  5
A6
100
AcDbEntity
  8
MOUNTS
  6
CONTINUOUS
100
AcDbPolyline
 90
        4
 70
     1
 43
0.0
 10
13321.02666529168
 20
-1681.432110901893
 10
13355.97277189738
 20
-1683.373665202768
 10
13357.91432619825
 20
-1648.427558597071
 10
13322.96821959255
 20
-1646.486004296197
  0
CIRCLE
  5
A7
100
AcDbEntity
  8
MOUNTS
  6
CONTINUOUS
100
AcDbCircle
 10
13339.47049574496
 20
-1664.929834749481
 30
0.0
 40
7.499999999999999
  0
LINE
  5
A8
100
AcDbEntity
  8
MOUNTS
  6
CONTINUOUS
100
AcDbLine
 10
13357.63696129818
 20
-1653.419859540586
 30
0.0
 11
13322.69085469254
 21
-1651.478305239714
 31
0.0
  0
LWPOLYLINE
  5
A9
100
AcDbEntity
  8
MOUNTS
  6
CONTINUOUS
100
AcDbPolyline
 90
        4
 70
     1
 43
0.0
 10
13420.97467327344
 20
-1684.656347319718
 10
13455.92077987914
 20
-1686.597901620592
 10
13457.86233418001
 20
-1651.651795014895
 10
13422.91622757431
 20
-1649.71024071402
  0
CIRCLE
  5
AA
100
AcDbEntity
  8
MOUNTS
  6
CONTINUOUS
100
AcDbCircle
 10
13439.41850372672
 20
-1668.154071167306
 30
0.0
 40
7.499999999999999
  0
LINE
  5
AB
100
AcDbEntity
  8
MOUNTS
  6
CONTINUOUS
100
AcDbLine
 10
13457.58496927994
 20
-1656.64409595841
 30
0.0
 11
13422.6388626743
 21
-1654.702541657538
 31
0.0
  0
LWPOLYLINE
  5
AC
100
AcDbEntity
  8
MOUNTS
  6
CONTINUOUS
100
AcDbPolyline
 90
        4
 70
     1
 43
0.0
 10
13840.75630679683
 20
-1698.198140274576
 10
13875.70241340253
 20
-1700.13969457545
 10
13877.6439677034
 20
-1665.193587969753
 10
13842.69786109771
 20
-1663.252033668879
  0
CIRCLE
  5
AD
100
AcDbEntity
  8
MOUNTS
  6
CONTINUOUS
100
AcDbCircle
 10
13859.20013725012
 20
-1681.695864122163
 30
0.0
 40
7.499999999999999
  0
LINE
  5
AE
100
AcDbEntity
  8
MOUNTS
  6
CONTINUOUS
100
AcDbLine
 10
13877.36660280333
 20
-1670.185888913268
 30
0.0
 11
13842.4204961977
 21
-1668.244334612396
 31
0.0
  0
LWPOLYLINE
  5
AF
100
AcDbEntity
  8
MOUNTS
  6
CONTINUOUS
100
AcDbPolyline
 90
        4
 70
     1
 43
0.0
 10
14260.53794032022
 20
-1711.739933229433
 10
14295.48404692592
 20
-1713.681487530307
 10
14297.42560122679
 20
-1678.735380924611
 10
14262.4794946211
 20
-1676.793826623736
  0
CIRCLE
  5
B0
100
AcDbEntity
  8
MOUNTS
  6
CONTINUOUS
100
AcDbCircle
 10
14278.98177077351
 20
-1695.237657077021
 30
0.0
 40
7.499999999999999
  0
LINE
  5
B1
100
AcDbEntity
  8
MOUNTS
  6
CONTINUOUS
100
AcDbLine
 10
14297.14823632673
 20
-1683.727681868126
 30
0.0
 11
14262.20212972109
 21
-1681.786127567255
 31
0.0
  0
LWPOLYLINE
  5
B2
100
AcDbEntity
  8
MOUNTS
  6
CONTINUOUS
100
AcDbPolyline
 90
        4
 70
     1
 43
0.0
 10
14680.31957384361
 20
-1725.281726184291
 10
14715.26568044931
 20
-1727.223280485165
 10
14717.20723475019
 20
-1692.277173879468
 10
14682.26112814449
 20
-1690.335619578594
  0
CIRCLE
  5
B3
100
AcDbEntity
  8
MOUNTS
  6
CONTINUOUS
100
AcDbCircle
 10
14698.7634042969
 20
-1708.779450031879
 30
0.0
 40
7.499999999999999
  0
LINE
  5
B4
100
AcDbEntity
  8
MOUNTS
  6
CONTINUOUS
100
AcDbLine
 10
14716.92986985012
 20
-1697.269474822984
 30
0.0
 11
14681.98376324448
 21
-1695.327920522112
 31
0.0
  0
LINE
  5
B5
100
AcDbEntity
  8
AXES
100
AcDbLine
 10
9684.045079530131
 20
-3119.252780850951
 30
0.0
 11
14822.43329209843
 21
-3369.012145239536
 31
0.0
  0
LWPOLYLINE
  5
B6
100
AcDbEntity
  8
MOUNTS
  6
CONTINUOUS
100
AcDbPolyline
 90
        4
 70
     1
 43
0.0
 10
10194.40541542289
 20
-3161.458407355439
 10
10229.35152202859
 20
-3163.399961656313
 10
10231.29307632946
 20
-3128.453855050617
 10
10196.34696972377
 20
-3126.512300749742
  0
CIRCLE
  5
B7
100
AcDbEntity
  8
MOUNTS
  6
CONTINUOUS
100
AcDbCircle
 10
10212.84924587618
 20
-3144.956131203028
 30
0.0
 40
7.499999999999999
  0
LINE
  5
B8
100
AcDbEntity
  8
MOUNTS
  6
CONTINUOUS
100
AcDbLine
 10
10231.0157114294
 20
-3133.446155994132
 30
0.0
 11
10196.06960482376
 21
-3131.50460169326
 31
0.0
  0
LWPOLYLINE
  5
B9
100
AcDbEntity
  8
MOUNTS
  6
CONTINUOUS
100
AcDbPolyline
 90
        4
 70
     1
 43
0.0
 10
10573.95731575584
 20
-3179.907118791405
 10
10608.90342236154
 20
-3181.848673092279
 10
10610.84497666241
 20
-3146.902566486581
 10
10575.89887005671
 20
-3144.961012185707
  0
CIRCLE
  5
BA
100
AcDbEntity
  8
MOUNTS
  6
CONTINUOUS
100
AcDbCircle
 10
10592.40114620913
 20
-3163.404842638993
 30
0.0
 40
7.499999999999999
  0
LINE
  5
BB
100
AcDbEntity
  8
MOUNTS
  6
CONTINUOUS
100
AcDbLine
 10
10610.56761176234
 20
-3151.894867430097
 30
0.0
 11
10575.62150515671
 21
-3149.953313129225
 31
0.0
  0
LWPOLYLINE
  5
BC
100
AcDbEntity
  8
MOUNTS
  6
CONTINUOUS
100
AcDbPolyline
 90
        4
 70
     1
 43
0.0
 10
10953.50921608879
 20
-3198.355830227369
 10
10988.45532269449
 20
-3200.297384528243
 10
10990.39687699536
 20
-3165.351277922546
 10
10955.45077038966
 20
-3163.409723621672
  0
CIRCLE
  5
BD
100
AcDbEntity
  8
MOUNTS
  6
CONTINUOUS
100
AcDbCircle
 10
10971.95304654207
 20
-3181.853554074957
 30
0.0
 40
7.499999999999999
  0
LINE
  5
BE
100
AcDbEntity
  8
MOUNTS
  6
CONTINUOUS
100
AcDbLine
 10
10990.11951209529
 20
-3170.343578866062
 30
0.0
 11
10955.17340548965
 21
-3168.40202456519
 31
0.0
  0
LWPOLYLINE
  5
BF
100
AcDbEntity
  8
MOUNTS
  6
CONTINUOUS
100
AcDbPolyline
 90
        4
 70
     1
 43
0.0
 10
11053.39129512377
 20
-3203.210754289465
 10
11088.33740172947
 20
-3205.152308590339
 10
11090.27895603035
 20
-3170.206201984643
 10
11055.33284942465
 20
-3168.264647683768
  0
CIRCLE
  5
C0
100
AcDbEntity
  8
MOUNTS
  6
CONTINUOUS
100
AcDbCircle
 10
11071.83512557706
 20
-3186.708478137054
 30
0.0
 40
7.499999999999999
  0
LINE
  5
C1
100
AcDbEntity
  8
MOUNTS
  6
CONTINUOUS
100
AcDbLine
 10
11090.00159113028
 20
-3175.198502928159
 30
0.0
 11
11055.05548452464
 21
-3173.256948627287
 31
0.0
  0
LWPOLYLINE
  5
C2
100
AcDbEntity
  8
MOUNTS
  6
CONTINUOUS
100
AcDbPolyline
 90
        4
 70
     1
 43
0.0
 10
11432.94319545672
 20
-3221.659465725431
 10
11467.88930206242
 20
-3223.601020026305
 10
11469.8308563633
 20
-3188.654913420608
 10
11434.8847497576
 20
-3186.713359119733
  0
CIRCLE
  5
C3
100
AcDbEntity
  8
MOUNTS
  6
CONTINUOUS
100
AcDbCircle
 10
11451.38702591001
 20
-3205.157189573019
 30
0.0
 40
7.499999999999999
  0
LINE
  5
C4
100
AcDbEntity
  8
MOUNTS
  6
CONTINUOUS
100
AcDbLine
 10
11469.55349146323
 20
-3193.647214364123
 30
0.0
 11
11434.60738485759
 21
-3191.705660063252
 31
0.0
  0
LWPOLYLINE
  5
C5
100
AcDbEntity
  8
MOUNTS
  6
CONTINUOUS
100
AcDbPolyline
 90
        4
 70
     1
 43
0.0
 10
11812.49509578967
 20
-3240.108177161395
 10
11847.44120239537
 20
-3242.04973146227
 10
11849.38275669624
 20
-3207.103624856573
 10
11814.43665009054
 20
-3205.162070555698
  0
CIRCLE
  5
C6
100
AcDbEntity
  8
MOUNTS
  6
CONTINUOUS
100
AcDbCircle
 10
11830.93892624296
 20
-3223.605901008983
 30
0.0
 40
7.499999999999999
  0
LINE
  5
C7
100
AcDbEntity
  8
MOUNTS
  6
CONTINUOUS
100
AcDbLine
 10
11849.10539179617
 20
-3212.095925800088
 30
0.0
 11
11814.15928519054
 21
-3210.154371499216
 31
0.0
  0
LWPOLYLINE
  5
C8
100
AcDbEntity
  8
MOUNTS
  6
CONTINUOUS
100
AcDbPolyline
 90
        4
 70
     1
 43
0.0
 10
12192.04699612262
 20
-3258.55688859736
 10
12226.99310272832
 20
-3260.498442898235
 10
12228.93465702919
 20
-3225.552336292538
 10
12193.98855042349
 20
-3223.610781991663
  0
CIRCLE
  5
C9
100
AcDbEntity
  8
MOUNTS
  6
CONTINUOUS
100
AcDbCircle
 10
12210.49082657591
 20
-3242.054612444948
 30
0.0
 40
7.499999999999999
  0
LINE
  5
CA
100
AcDbEntity
  8
MOUNTS
  6
CONTINUOUS
100
AcDbLine
 10
12228.65729212912
 20
-3230.544637236053
 30
0.0
 11
12193.71118552349
 21
-3228.603082935181
 31
0.0
  0
LWPOLYLINE
  5
CB
100
AcDbEntity
  8
MOUNTS
  6
CONTINUOUS
100
AcDbPolyline
 90
        4
 70
     1
 43
0.0
 10
12291.92907515761
 20
-3263.411812659456
 10
12326.87518176331
 20
-3265.353366960331
 10
12328.81673606418
 20
-3230.407260354633
 10
12293.87062945848
 20
-3228.465706053759
  0
CIRCLE
  5
CC
100
AcDbEntity
  8
MOUNTS
  6
CONTINUOUS
100
AcDbCircle
 10
12310.37290561089
 20
-3246.909536507045
 30
0.0
 40
7.499999999999999
  0
LINE
  5
CD
100
AcDbEntity
  8
MOUNTS
  6
CONTINUOUS
100
AcDbLine
 10
12328.53937116411
 20
-3235.399561298149
 30
0.0
 11
12293.59326455847
 21
-3233.458006997277
 31
0.0
  0
LWPOLYLINE
  5
CE
100
AcDbEntity
  8
MOUNTS
  6
CONTINUOUS
100
AcDbPolyline
 90
        4
 70
     1
 43
0.0
 10
12671.48097549055
 20
-3281.860524095421
 10
12706.42708209625
 20
-3283.802078396296
 10
12708.36863639713
 20
-3248.855971790598
 10
12673.42252979143
 20
-3246.914417489724
  0
CIRCLE
  5
CF
100
AcDbEntity
  8
MOUNTS
  6
CONTINUOUS
100
AcDbCircle
 10
12689.92480594384
 20
-3265.35824794301
 30
0.0
 40
7.499999999999999
  0
LINE
  5
D0
100
AcDbEntity
  8
MOUNTS
  6
CONTINUOUS
100
AcDbLine
 10
12708.09127149706
 20
-3253.848272734114
 30
0.0
 11
12673.14516489142
 21
-3251.906718433243
 31
0.0
  0
LWPOLYLINE
  5
D1
100
AcDbEntity
  8
MOUNTS
  6
CONTINUOUS
100
AcDbPolyline
 90
        4
 70
     1
 43
0.0
 10
13051.0328758235
 20
-3300.309235531386
 10
13085.9789824292
 20
-3302.25078983226
 10
13087.92053673007
 20
-3267.304683226563
 10
13052.97443012437
 20
-3265.363128925689
  0
CIRCLE
  5
D2
100
AcDbEntity
  8
MOUNTS
  6
CONTINUOUS
100
AcDbCircle
 10
13069.47670627679
 20
-3283.806959378974
 30
0.0
 40
7.499999999999999
  0
LINE
  5
D3
100
AcDbEntity
  8
MOUNTS
  6
CONTINUOUS
100
AcDbLine
 10
13087.64317183001
 20
-3272.296984170079
 30
0.0
 11
13052.69706522437
 21
-3270.355429869208
 31
0.0
  0
LWPOLYLINE
  5
D4
100
AcDbEntity
  8
MOUNTS
  6
CONTINUOUS
100
AcDbPolyline
 90
        4
 70
     1
 43
0.0
 10
13430.58477615645
 20
-3318.75794696735
 10
13465.53088276215
 20
-3320.699501268225
 10
13467.47243706302
 20
-3285.753394662529
 10
13432.52633045733
 20
-3283.811840361654
  0
CIRCLE
  5
D5
100
AcDbEntity
  8
MOUNTS
  6
CONTINUOUS
100
AcDbCircle
 10
13449.02860660974
 20
-3302.255670814939
 30
0.0
 40
7.499999999999999
  0
LINE
  5
D6
100
AcDbEntity
  8
MOUNTS
  6
CONTINUOUS
100
AcDbLine
 10
13467.19507216295
 20
-3290.745695606043
 30
0.0
 11
13432.24896555732
 21
-3288.804141305172
 31
0.0
  0
LWPOLYLINE
  5
D7
100
AcDbEntity
  8
MOUNTS
  6
CONTINUOUS
100
AcDbPolyline
 90
        4
 70
     1
 43
0.0
 10
13530.46685519144
 20
-3323.612871029447
 10
13565.41296179714
 20
-3325.554425330322
 10
13567.35451609801
 20
-3290.608318724624
 10
13532.40840949231
 20
-3288.66676442375
  0
CIRCLE
  5
D8
100
AcDbEntity
  8
MOUNTS
  6
CONTINUOUS
100
AcDbCircle
 10
13548.91068564473
 20
-3307.110594877035
 30
0.0
 40
7.499999999999999
  0
LINE
  5
D9
100
AcDbEntity
  8
MOUNTS
  6
CONTINUOUS
100
AcDbLine
 10
13567.07715119794
 20
-3295.60061966814
 30
0.0
 11
13532.1310445923
 21
-3293.659065367268
 31
0.0
  0
LWPOLYLINE
  5
DA
100
AcDbEntity
  8
MOUNTS
  6
CONTINUOUS
100
AcDbPolyline
 90
        4
 70
     1
 43
0.0
 10
13910.01875552439
 20
-3342.061582465412
 10
13944.96486213008
 20
-3344.003136766286
 10
13946.90641643096
 20
-3309.057030160589
 10
13911.96030982526
 20
-3307.115475859715
  0
CIRCLE
  5
DB
100
AcDbEntity
  8
MOUNTS
  6
CONTINUOUS
100
AcDbCircle
 10
13928.46258597767
 20
-3325.559306313
 30
0.0
 40
7.499999999999999
  0
LINE
  5
DC
100
AcDbEntity
  8
MOUNTS
  6
CONTINUOUS
100
AcDbLine
 10
13946.62905153089
 20
-3314.049331104105
 30
0.0
 11
13911.68294492525
 21
-3312.107776803233
 31
0.0
  0
LWPOLYLINE
  5
DD
100
AcDbEntity
  8
MOUNTS
  6
CONTINUOUS
100
AcDbPolyline
 90
        4
 70
     1
 43
0.0
 10
14289.57065585733
 20
-3360.510293901377
 10
14324.51676246303
 20
-3362.451848202251
 10
14326.4583167639
 20
-3327.505741596554
 10
14291.51221015821
 20
-3325.56418729568
  0
CIRCLE
  5
DE
100
AcDbEntity
  8
MOUNTS
  6
CONTINUOUS
100
AcDbCircle
 10
14308.01448631062
 20
-3344.008017748965
 30
0.0
 40
7.499999999999999
  0
LINE
  5
DF
100
AcDbEntity
  8
MOUNTS
  6
CONTINUOUS
100
AcDbLine
 10
14326.18095186384
 20
-3332.49804254007
 30
0.0
 11
14291.2348452582
 21
-3330.556488239198
 31
0.0
  0
LWPOLYLINE
  5
E0
100
AcDbEntity
  8
MOUNTS
  6
CONTINUOUS
100
AcDbPolyline
 90
        4
 70
     1
 43
0.0
 10
14669.12255619028
 20
-3378.959005337341
 10
14704.06866279598
 20
-3380.900559638216
 10
14706.01021709686
 20
-3345.954453032519
 10
14671.06411049116
 20
-3344.012898731645
  0
CIRCLE
  5
E1
100
AcDbEntity
  8
MOUNTS
  6
CONTINUOUS
100
AcDbCircle
 10
14687.56638664357
 20
-3362.456729184929
 30
0.0
 40
7.499999999999999
  0
LINE
  5
E2
100
AcDbEntity
  8
MOUNTS
  6
CONTINUOUS
100
AcDbLine
 10
14705.73285219679
 20
-3350.946753976034
 30
0.0
 11
14670.78674559115
 21
-3349.005199675163
 31
0.0
  0
TEXT
  5
E4
100
AcDbEntity
  8
COMMENTS
100
AcDbText
 10
11462.02935513698
 20
-2661.934019010796
 30
0.0
 40
160.612827443842
  1
Final version
 41
0.6000000000000001
  7
ARIAL
 11
11462.02935513698
 21
-2661.934019010796
 31
0.0
100
AcDbText
 73
     1
  0
TEXT
  5
E5
100
AcDbEntity
  8
COMMENTS
100
AcDbText
 10
11353.96656090538
 20
-896.9083798946956
 30
0.0
 40
160.612827443842
  1
First version
 41
0.6000000000000001
  7
ARIAL
 11
11353.96656090538
 21
-896.9083798946956
 31
0.0
100
AcDbText
 73
     1
  0
TEXT
  5
E6
100
AcDbEntity
  8
COMMENTS
100
AcDbText
 10
14211.7684449978
 20
-790.4370568406707
 30
0.0
 40
23.22950816791624
  1
Drg version 1.1 / 27 Mar 2014
 41
0.6000000000000001
  7
ARIAL
 11
14211.7684449978
 21
-790.4370568406707
 31
0.0
100
AcDbText
 73
     1
  0
ENDSEC
  0
SECTION
  2
OBJECTS
  0
DICTIONARY
  5
C
100
AcDbDictionary
  3
ACAD_GROUP
350
D
  3
ACAD_MLINESTYLE
350
1B
  3
ACDBVARIABLEDICTIONARY
350
1E
  0
DICTIONARY
  5
D
102
{ACAD_REACTORS
330
C
102
}
100
AcDbDictionary
  0
DICTIONARY
  5
1B
102
{ACAD_REACTORS
330
C
102
}
100
AcDbDictionary
  3
STANDARD
350
1C
  0
DICTIONARY
  5
1E
102
{ACAD_REACTORS
330
C
102
}
100
AcDbDictionary
  3
DIMADEC
350
1F
  0
MLINESTYLE
  5
1C
102
{ACAD_REACTORS
330
1B
102
}
100
AcDbMlineStyle
  2
STANDARD
 70
     0
  3

 62
   256
 51
90.0
 52
90.0
 71
     2
 49
0.5
 62
   256
  6
BYLAYER
 49
-0.5
 62
   256
  6
BYLAYER
  0
DICTIONARYVAR
  5
1F
102
{ACAD_REACTORS
330
1E
102
}
100
DictionaryVariables
280
     0
  1
-1
  0
ENDSEC
  0
EOF
