  0
SECTION
  2
HEADER
  9
$ACADVER
  1
AC1014
  9
$ACADMAINTVER
 70
     5
  9
$DWGCODEPAGE
  3
ANSI_1252
  9
$INSBASE
 10
0.0
 20
0.0
 30
0.0
  9
$EXTMIN
 10
1.000000000000000E+20
 20
1.000000000000000E+20
 30
1.000000000000000E+20
  9
$EXTMAX
 10
-1.000000000000000E+20
 20
-1.000000000000000E+20
 30
-1.000000000000000E+20
  9
$LIMMIN
 10
0.0
 20
0.0
  9
$LIMMAX
 10
12.0
 20
9.0
  9
$ORTHOMODE
 70
     0
  9
$REGENMODE
 70
     1
  9
$FILLMODE
 70
     1
  9
$QTEXTMODE
 70
     0
  9
$MIRRTEXT
 70
     1
  9
$DRAGMODE
 70
     2
  9
$LTSCALE
 40
1.0
  9
$OSMODE
 70
   128
  9
$ATTMODE
 70
     0
  9
$TEXTSIZE
 40
247.5288659096885
  9
$TRACEWID
 40
0.05
  9
$TEXTSTYLE
  7
STANDARD
  9
$CLAYER
  8
0
  9
$CELTYPE
  6
BYLAYER
  9
$CECOLOR
 62
   256
  9
$CELTSCALE
 40
1.0
  9
$DELOBJ
 70
     1
  9
$DISPSILH
 70
     0
  9
$DIMSCALE
 40
1.0
  9
$DIMASZ
 40
0.18
  9
$DIMEXO
 40
0.0625
  9
$DIMDLI
 40
0.38
  9
$DIMRND
 40
0.0
  9
$DIMDLE
 40
0.0
  9
$DIMEXE
 40
0.18
  9
$DIMTP
 40
0.0
  9
$DIMTM
 40
0.0
  9
$DIMTXT
 40
3.898092376530528
  9
$DIMCEN
 40
0.09
  9
$DIMTSZ
 40
0.0
  9
$DIMTOL
 70
     0
  9
$DIMLIM
 70
     0
  9
$DIMTIH
 70
     1
  9
$DIMTOH
 70
     1
  9
$DIMSE1
 70
     0
  9
$DIMSE2
 70
     0
  9
$DIMTAD
 70
     0
  9
$DIMZIN
 70
     0
  9
$DIMBLK
  1

  9
$DIMASO
 70
     1
  9
$DIMSHO
 70
     1
  9
$DIMPOST
  1

  9
$DIMAPOST
  1

  9
$DIMALT
 70
     0
  9
$DIMALTD
 70
     2
  9
$DIMALTF
 40
25.4
  9
$DIMLFAC
 40
1.0
  9
$DIMTOFL
 70
     0
  9
$DIMTVP
 40
0.0
  9
$DIMTIX
 70
     0
  9
$DIMSOXD
 70
     0
  9
$DIMSAH
 70
     0
  9
$DIMBLK1
  1

  9
$DIMBLK2
  1

  9
$DIMSTYLE
  2
STANDARD
  9
$DIMCLRD
 70
     0
  9
$DIMCLRE
 70
     0
  9
$DIMCLRT
 70
     0
  9
$DIMTFAC
 40
1.0
  9
$DIMGAP
 40
0.09
  9
$DIMJUST
 70
     0
  9
$DIMSD1
 70
     0
  9
$DIMSD2
 70
     0
  9
$DIMTOLJ
 70
     1
  9
$DIMTZIN
 70
     0
  9
$DIMALTZ
 70
     0
  9
$DIMALTTZ
 70
     0
  9
$DIMFIT
 70
     3
  9
$DIMUPT
 70
     0
  9
$DIMUNIT
 70
     4
  9
$DIMDEC
 70
    -1
  9
$DIMTDEC
 70
     4
  9
$DIMALTU
 70
     2
  9
$DIMALTTD
 70
     2
  9
$DIMTXSTY
  7
STANDARD
  9
$DIMAUNIT
 70
     1
  9
$LUNITS
 70
     2
  9
$LUPREC
 70
     1
  9
$SKETCHINC
 40
0.1
  9
$FILLETRAD
 40
8.999999999999998
  9
$AUNITS
 70
     0
  9
$AUPREC
 70
     2
  9
$MENU
  1
.
  9
$ELEVATION
 40
0.0
  9
$PELEVATION
 40
0.0
  9
$THICKNESS
 40
0.0
  9
$LIMCHECK
 70
     0
  9
$BLIPMODE
 70
     0
  9
$CHAMFERA
 40
0.9999999999999998
  9
$CHAMFERB
 40
0.9999999999999998
  9
$CHAMFERC
 40
0.0
  9
$CHAMFERD
 40
0.0
  9
$SKPOLY
 70
     0
  9
$TDCREATE
 40
0.0000000000
  9
$TDUPDATE
 40
0.0000000000
  9
$TDINDWG
 40
0.0000000000
  9
$TDUSRTIMER
 40
0.0000000000
  9
$USRTIMER
 70
     1
  9
$ANGBASE
 50
0.0
  9
$ANGDIR
 70
     0
  9
$PDMODE
 70
     0
  9
$PDSIZE
 40
0.0
  9
$PLINEWID
 40
0.0
  9
$COORDS
 70
     1
  9
$SPLFRAME
 70
     0
  9
$SPLINETYPE
 70
     6
  9
$SPLINESEGS
 70
     8
  9
$ATTDIA
 70
     0
  9
$ATTREQ
 70
     1
  9
$HANDLING
 70
     1
  9
$HANDSEED
  5
B6
  9
$SURFTAB1
 70
     6
  9
$SURFTAB2
 70
     6
  9
$SURFTYPE
 70
     6
  9
$SURFU
 70
     6
  9
$SURFV
 70
     6
  9
$UCSNAME
  2

  9
$UCSORG
 10
0.0
 20
0.0
 30
0.0
  9
$UCSXDIR
 10
1.0
 20
0.0
 30
0.0
  9
$UCSYDIR
 10
0.0
 20
1.0
 30
0.0
  9
$PUCSNAME
  2

  9
$PUCSORG
 10
0.0
 20
0.0
 30
0.0
  9
$PUCSXDIR
 10
1.0
 20
0.0
 30
0.0
  9
$PUCSYDIR
 10
0.0
 20
1.0
 30
0.0
  9
$USERI1
 70
     0
  9
$USERI2
 70
     0
  9
$USERI3
 70
     0
  9
$USERI4
 70
     0
  9
$USERI5
 70
     0
  9
$USERR1
 40
0.0
  9
$USERR2
 40
0.0
  9
$USERR3
 40
0.0
  9
$USERR4
 40
0.0
  9
$USERR5
 40
0.0
  9
$WORLDVIEW
 70
     1
  9
$SHADEDGE
 70
     3
  9
$SHADEDIF
 70
    70
  9
$TILEMODE
 70
     1
  9
$MAXACTVP
 70
    48
  9
$PINSBASE
 10
0.0
 20
0.0
 30
0.0
  9
$PLIMCHECK
 70
     0
  9
$PEXTMIN
 10
1.000000000000000E+20
 20
1.000000000000000E+20
 30
1.000000000000000E+20
  9
$PEXTMAX
 10
-1.000000000000000E+20
 20
-1.000000000000000E+20
 30
-1.000000000000000E+20
  9
$PLIMMIN
 10
0.0
 20
0.0
  9
$PLIMMAX
 10
12.0
 20
9.0
  9
$UNITMODE
 70
     0
  9
$VISRETAIN
 70
     1
  9
$PLINEGEN
 70
     0
  9
$PSLTSCALE
 70
     1
  9
$TREEDEPTH
 70
  3020
  9
$PICKSTYLE
 70
     1
  9
$CMLSTYLE
  2
STANDARD
  9
$CMLJUST
 70
     0
  9
$CMLSCALE
 40
1.0
  9
$PROXYGRAPHICS
 70
     1
  9
$MEASUREMENT
 70
     0
  0
ENDSEC
  0
SECTION
  2
CLASSES
  0
CLASS
  1
DICTIONARYVAR
  2
AcDbDictionaryVar
  3
"AutoCAD"
 90
        0
280
     0
281
     0
  0
CLASS
  1
LWPOLYLINE
  2
AcDbPolyline
  3
"AutoCAD"
 90
        0
280
     0
281
     1
  0
ENDSEC
  0
SECTION
  2
TABLES
  0
TABLE
  2
VPORT
  5
8
100
AcDbSymbolTable
 70
     1
  0
VPORT
  5
11
100
AcDbSymbolTableRecord
100
AcDbViewportTableRecord
  2
*ACTIVE
 70
     0
 10
0.0
 20
0.0
 11
1.0
 21
1.0
 12
3.6
 22
4.5
 13
0.0
 23
0.0
 14
1.0
 24
1.0
 15
0.0
 25
0.0
 16
0.0
 26
0.0
 36
1.0
 17
0.0
 27
0.0
 37
0.0
 40
15.0
 41
0.8
 42
50.0
 43
0.0
 44
0.0
 50
0.0
 51
0.0
 71
     0
 72
   100
 73
     1
 74
     1
 75
     0
 76
     0
 77
     0
 78
     0
  0
ENDTAB
  0
TABLE
  2
LTYPE
  5
5
100
AcDbSymbolTable
 70
    40
  0
LTYPE
  5
12
100
AcDbSymbolTableRecord
100
AcDbLinetypeTableRecord
  2
BYBLOCK
 70
     0
  3

 72
    65
 73
     0
 40
0.0
  0
LTYPE
  5
13
100
AcDbSymbolTableRecord
100
AcDbLinetypeTableRecord
  2
BYLAYER
 70
     0
  3

 72
    65
 73
     0
 40
0.0
  0
LTYPE
  5
14
100
AcDbSymbolTableRecord
100
AcDbLinetypeTableRecord
  2
CONTINUOUS
 70
     0
  3
Solid line
 72
    65
 73
     0
 40
0.0
  0
LTYPE
  5
20
100
AcDbSymbolTableRecord
100
AcDbLinetypeTableRecord
  2
HIDDEN
 70
     0
  3
_ _ _ _ _ _ _ _ _ _ _ _ _ _ 
 72
    65
 73
     2
 40
9.524999999999998
 49
6.349999999999999
 74
     0
 49
-3.174999999999999
 74
     0
  0
LTYPE
  5
21
100
AcDbSymbolTableRecord
100
AcDbLinetypeTableRecord
  2
DASHED
 70
     0
  3
__ __ __ __ __ __ __ __ __ 
 72
    65
 73
     2
 40
19.04999999999999
 49
12.7
 74
     0
 49
-6.349999999999999
 74
     0
  0
LTYPE
  5
22
100
AcDbSymbolTableRecord
100
AcDbLinetypeTableRecord
  2
CENTER
 70
     0
  3
____ _ ____ _ ____ _ ____ _ 
 72
    65
 73
     4
 40
50.8
 49
31.75
 74
     0
 49
-6.349999999999999
 74
     0
 49
6.349999999999999
 74
     0
 49
-6.349999999999999
 74
     0
  0
LTYPE
  5
23
100
AcDbSymbolTableRecord
100
AcDbLinetypeTableRecord
  2
PHANTOM
 70
     0
  3
_____ _ _ _____ _ _ _____ _ _ 
 72
    65
 73
     6
 40
63.50000000000001
 49
31.75
 74
     0
 49
-6.349999999999999
 74
     0
 49
6.349999999999999
 74
     0
 49
-6.349999999999999
 74
     0
 49
6.349999999999999
 74
     0
 49
-6.349999999999999
 74
     0
  0
LTYPE
  5
24
100
AcDbSymbolTableRecord
100
AcDbLinetypeTableRecord
  2
DOT
 70
     0
  3
...........................
 72
    65
 73
     2
 40
6.349999999999999
 49
0.0
 74
     0
 49
-6.349999999999999
 74
     0
  0
LTYPE
  5
25
100
AcDbSymbolTableRecord
100
AcDbLinetypeTableRecord
  2
DASHDOT
 70
     0
  3
__ . __ . __ . __ . __ . __ . 
 72
    65
 73
     4
 40
25.4
 49
12.7
 74
     0
 49
-6.349999999999999
 74
     0
 49
0.0
 74
     0
 49
-6.349999999999999
 74
     0
  0
LTYPE
  5
26
100
AcDbSymbolTableRecord
100
AcDbLinetypeTableRecord
  2
DIVIDE
 70
     0
  3
__ . . __ . . __ . . __ . . 
 72
    65
 73
     6
 40
31.75
 49
12.7
 74
     0
 49
-6.349999999999999
 74
     0
 49
0.0
 74
     0
 49
-6.349999999999999
 74
     0
 49
0.0
 74
     0
 49
-6.349999999999999
 74
     0
  0
LTYPE
  5
27
100
AcDbSymbolTableRecord
100
AcDbLinetypeTableRecord
  2
BORDER
 70
     0
  3
__ __ . __ __ . __ __ . __ __ .
 72
    65
 73
     6
 40
44.44999999999999
 49
12.7
 74
     0
 49
-6.349999999999999
 74
     0
 49
12.7
 74
     0
 49
-6.349999999999999
 74
     0
 49
0.0
 74
     0
 49
-6.349999999999999
 74
     0
  0
LTYPE
  5
28
100
AcDbSymbolTableRecord
100
AcDbLinetypeTableRecord
  2
BORDER2
 70
     0
  3
Border (.5x) __.__.__.__.__.__.
 72
    65
 73
     6
 40
0.875
 49
0.25
 74
     0
 49
-0.125
 74
     0
 49
0.25
 74
     0
 49
-0.125
 74
     0
 49
0.0
 74
     0
 49
-0.125
 74
     0
  0
LTYPE
  5
29
100
AcDbSymbolTableRecord
100
AcDbLinetypeTableRecord
  2
BORDERX2
 70
     0
  3
Border (2x) ____  ____  .  ____
 72
    65
 73
     6
 40
3.5
 49
1.0
 74
     0
 49
-0.5
 74
     0
 49
1.0
 74
     0
 49
-0.5
 74
     0
 49
0.0
 74
     0
 49
-0.5
 74
     0
  0
LTYPE
  5
2A
100
AcDbSymbolTableRecord
100
AcDbLinetypeTableRecord
  2
CENTER2
 70
     0
  3
Center (.5x) ___ _ ___ _ ___ _ 
 72
    65
 73
     4
 40
1.125
 49
0.75
 74
     0
 49
-0.125
 74
     0
 49
0.125
 74
     0
 49
-0.125
 74
     0
  0
LTYPE
  5
2B
100
AcDbSymbolTableRecord
100
AcDbLinetypeTableRecord
  2
CENTERX2
 70
     0
  3
Center (2x) ________  __  _____
 72
    65
 73
     4
 40
4.0
 49
2.5
 74
     0
 49
-0.5
 74
     0
 49
0.5
 74
     0
 49
-0.5
 74
     0
  0
LTYPE
  5
2C
100
AcDbSymbolTableRecord
100
AcDbLinetypeTableRecord
  2
DASHDOT2
 70
     0
  3
Dash dot (.5x) _._._._._._._._.
 72
    65
 73
     4
 40
0.5
 49
0.25
 74
     0
 49
-0.125
 74
     0
 49
0.0
 74
     0
 49
-0.125
 74
     0
  0
LTYPE
  5
2D
100
AcDbSymbolTableRecord
100
AcDbLinetypeTableRecord
  2
DASHDOTX2
 70
     0
  3
Dash dot (2x) ____  .  ____  . 
 72
    65
 73
     4
 40
2.0
 49
1.0
 74
     0
 49
-0.5
 74
     0
 49
0.0
 74
     0
 49
-0.5
 74
     0
  0
LTYPE
  5
2E
100
AcDbSymbolTableRecord
100
AcDbLinetypeTableRecord
  2
DASHED2
 70
     0
  3
Dashed (.5x) _ _ _ _ _ _ _ _ _ 
 72
    65
 73
     2
 40
0.375
 49
0.25
 74
     0
 49
-0.125
 74
     0
  0
LTYPE
  5
2F
100
AcDbSymbolTableRecord
100
AcDbLinetypeTableRecord
  2
DASHEDX2
 70
     0
  3
Dashed (2x) ____  ____  ____  _
 72
    65
 73
     2
 40
1.5
 49
1.0
 74
     0
 49
-0.5
 74
     0
  0
LTYPE
  5
30
100
AcDbSymbolTableRecord
100
AcDbLinetypeTableRecord
  2
DIVIDE2
 70
     0
  3
Divide (.5x) __..__..__..__..__
 72
    65
 73
     6
 40
0.625
 49
0.25
 74
     0
 49
-0.125
 74
     0
 49
0.0
 74
     0
 49
-0.125
 74
     0
 49
0.0
 74
     0
 49
-0.125
 74
     0
  0
LTYPE
  5
31
100
AcDbSymbolTableRecord
100
AcDbLinetypeTableRecord
  2
DIVIDEX2
 70
     0
  3
Divide (2x) ________  .  .  ___
 72
    65
 73
     6
 40
2.5
 49
1.0
 74
     0
 49
-0.5
 74
     0
 49
0.0
 74
     0
 49
-0.5
 74
     0
 49
0.0
 74
     0
 49
-0.5
 74
     0
  0
LTYPE
  5
32
100
AcDbSymbolTableRecord
100
AcDbLinetypeTableRecord
  2
DOT2
 70
     0
  3
Dot (.5x) .....................
 72
    65
 73
     2
 40
0.125
 49
0.0
 74
     0
 49
-0.125
 74
     0
  0
LTYPE
  5
33
100
AcDbSymbolTableRecord
100
AcDbLinetypeTableRecord
  2
DOTX2
 70
     0
  3
Dot (2x) .  .  .  .  .  .  .  .
 72
    65
 73
     2
 40
0.5
 49
0.0
 74
     0
 49
-0.5
 74
     0
  0
LTYPE
  5
34
100
AcDbSymbolTableRecord
100
AcDbLinetypeTableRecord
  2
HIDDEN2
 70
     0
  3
Hidden (.5x) _ _ _ _ _ _ _ _ _ 
 72
    65
 73
     2
 40
0.1875
 49
0.125
 74
     0
 49
-0.0625
 74
     0
  0
LTYPE
  5
35
100
AcDbSymbolTableRecord
100
AcDbLinetypeTableRecord
  2
HIDDENX2
 70
     0
  3
Hidden (2x) ____ ____ ____ ____
 72
    65
 73
     2
 40
0.75
 49
0.5
 74
     0
 49
-0.25
 74
     0
  0
LTYPE
  5
36
100
AcDbSymbolTableRecord
100
AcDbLinetypeTableRecord
  2
PHANTOM2
 70
     0
  3
Phantom (.5x) ___ _ _ ___ _ _ _
 72
    65
 73
     6
 40
1.25
 49
0.625
 74
     0
 49
-0.125
 74
     0
 49
0.125
 74
     0
 49
-0.125
 74
     0
 49
0.125
 74
     0
 49
-0.125
 74
     0
  0
LTYPE
  5
37
100
AcDbSymbolTableRecord
100
AcDbLinetypeTableRecord
  2
PHANTOMX2
 70
     0
  3
Phantom (2x) ____________    __
 72
    65
 73
     6
 40
5.0
 49
2.5
 74
     0
 49
-0.5
 74
     0
 49
0.5
 74
     0
 49
-0.5
 74
     0
 49
0.5
 74
     0
 49
-0.5
 74
     0
  0
LTYPE
  5
38
100
AcDbSymbolTableRecord
100
AcDbLinetypeTableRecord
  2
DOTS
 70
     0
  3
Dots - - - - - - - - - - - - - 
 72
    65
 73
     2
 40
0.1
 49
0.05
 74
     0
 49
-0.05
 74
     0
  0
LTYPE
  5
39
100
AcDbSymbolTableRecord
100
AcDbLinetypeTableRecord
  2
ACAD_ISO02W100
 70
     0
  3
__ __ __ __ __ __ __ __ __ __ _
 72
    65
 73
     2
 40
15.0
 49
12.0
 74
     0
 49
-3.0
 74
     0
  0
LTYPE
  5
3A
100
AcDbSymbolTableRecord
100
AcDbLinetypeTableRecord
  2
ACAD_ISO03W100
 70
     0
  3
__    __    __    __    __    _
 72
    65
 73
     2
 40
30.0
 49
12.0
 74
     0
 49
-18.0
 74
     0
  0
LTYPE
  5
3B
100
AcDbSymbolTableRecord
100
AcDbLinetypeTableRecord
  2
ACAD_ISO04W100
 70
     0
  3
____ . ____ . ____ . ____ . ___
 72
    65
 73
     4
 40
30.5
 49
24.0
 74
     0
 49
-3.0
 74
     0
 49
0.5
 74
     0
 49
-3.0
 74
     0
  0
LTYPE
  5
3C
100
AcDbSymbolTableRecord
100
AcDbLinetypeTableRecord
  2
ACAD_ISO05W100
 70
     0
  3
____ .. ____ .. ____ .. ____ ..
 72
    65
 73
     6
 40
34.0
 49
24.0
 74
     0
 49
-3.0
 74
     0
 49
0.5
 74
     0
 49
-3.0
 74
     0
 49
0.5
 74
     0
 49
-3.0
 74
     0
  0
LTYPE
  5
3D
100
AcDbSymbolTableRecord
100
AcDbLinetypeTableRecord
  2
ACAD_ISO06W100
 70
     0
  3
____ ... ____ ... ____ ... ____
 72
    65
 73
     6
 40
34.0
 49
24.0
 74
     0
 49
-3.0
 74
     0
 49
0.5
 74
     0
 49
-3.0
 74
     0
 49
0.5
 74
     0
 49
-3.0
 74
     0
  0
LTYPE
  5
3E
100
AcDbSymbolTableRecord
100
AcDbLinetypeTableRecord
  2
ACAD_ISO07W100
 70
     0
  3
. . . . . . . . . . . . . . . .
 72
    65
 73
     2
 40
3.5
 49
0.5
 74
     0
 49
-3.0
 74
     0
  0
LTYPE
  5
3F
100
AcDbSymbolTableRecord
100
AcDbLinetypeTableRecord
  2
ACAD_ISO08W100
 70
     0
  3
____ __ ____ __ ____ __ ____ __
 72
    65
 73
     4
 40
36.0
 49
24.0
 74
     0
 49
-3.0
 74
     0
 49
6.0
 74
     0
 49
-3.0
 74
     0
  0
LTYPE
  5
40
100
AcDbSymbolTableRecord
100
AcDbLinetypeTableRecord
  2
ACAD_ISO09W100
 70
     0
  3
____ __ __ ____ __ __ ____ __ _
 72
    65
 73
     6
 40
45.0
 49
24.0
 74
     0
 49
-3.0
 74
     0
 49
6.0
 74
     0
 49
-3.0
 74
     0
 49
6.0
 74
     0
 49
-3.0
 74
     0
  0
LTYPE
  5
41
100
AcDbSymbolTableRecord
100
AcDbLinetypeTableRecord
  2
ACAD_ISO10W100
 70
     0
  3
__ . __ . __ . __ . __ . __ . _
 72
    65
 73
     4
 40
18.5
 49
12.0
 74
     0
 49
-3.0
 74
     0
 49
0.5
 74
     0
 49
-3.0
 74
     0
  0
LTYPE
  5
42
100
AcDbSymbolTableRecord
100
AcDbLinetypeTableRecord
  2
ACAD_ISO11W100
 70
     0
  3
__ __ . __ __ . __ __ . __ __ .
 72
    65
 73
     6
 40
33.5
 49
12.0
 74
     0
 49
-3.0
 74
     0
 49
12.0
 74
     0
 49
-3.0
 74
     0
 49
0.5
 74
     0
 49
-3.0
 74
     0
  0
LTYPE
  5
43
100
AcDbSymbolTableRecord
100
AcDbLinetypeTableRecord
  2
ACAD_ISO12W100
 70
     0
  3
__ . . __ . . __ . . __ . . __ 
 72
    65
 73
     6
 40
22.0
 49
12.0
 74
     0
 49
-3.0
 74
     0
 49
0.5
 74
     0
 49
-3.0
 74
     0
 49
0.5
 74
     0
 49
-3.0
 74
     0
  0
LTYPE
  5
44
100
AcDbSymbolTableRecord
100
AcDbLinetypeTableRecord
  2
ACAD_ISO13W100
 70
     0
  3
__ __ . . __ __ . . __ __ . . _
 72
    65
 73
     6
 40
33.5
 49
12.0
 74
     0
 49
-3.0
 74
     0
 49
12.0
 74
     0
 49
-3.0
 74
     0
 49
0.5
 74
     0
 49
-3.0
 74
     0
  0
LTYPE
  5
45
100
AcDbSymbolTableRecord
100
AcDbLinetypeTableRecord
  2
ACAD_ISO14W100
 70
     0
  3
__ . . . __ . . . __ . . . __ .
 72
    65
 73
     6
 40
22.0
 49
12.0
 74
     0
 49
-3.0
 74
     0
 49
0.5
 74
     0
 49
-3.0
 74
     0
 49
0.5
 74
     0
 49
-3.0
 74
     0
  0
LTYPE
  5
46
100
AcDbSymbolTableRecord
100
AcDbLinetypeTableRecord
  2
ACAD_ISO15W100
 70
     0
  3
__ __ . . . __ __ . . . __ __ .
 72
    65
 73
     6
 40
33.5
 49
12.0
 74
     0
 49
-3.0
 74
     0
 49
12.0
 74
     0
 49
-3.0
 74
     0
 49
0.5
 74
     0
 49
-3.0
 74
     0
  0
ENDTAB
  0
TABLE
  2
LAYER
  5
2
100
AcDbSymbolTable
 70
     7
  0
LAYER
  5
E
100
AcDbSymbolTableRecord
100
AcDbLayerTableRecord
  2
0
 70
     0
 62
     7
  6
CONTINUOUS
  0
LAYER
  5
47
100
AcDbSymbolTableRecord
100
AcDbLayerTableRecord
  2
AXES
 70
     0
 62
     1
  6
CONTINUOUS
  0
LAYER
  5
48
100
AcDbSymbolTableRecord
100
AcDbLayerTableRecord
  2
BIN
 70
     4
 62
     7
  6
CONTINUOUS
  0
LAYER
  5
49
100
AcDbSymbolTableRecord
100
AcDbLayerTableRecord
  2
COMMENTS
 70
     0
 62
    94
  6
CONTINUOUS
  0
LAYER
  5
4A
100
AcDbSymbolTableRecord
100
AcDbLayerTableRecord
  2
FIXED
 70
     0
 62
     7
  6
CONTINUOUS
  0
LAYER
  5
4B
100
AcDbSymbolTableRecord
100
AcDbLayerTableRecord
  2
LID
 70
     4
 62
     7
  6
CONTINUOUS
  0
LAYER
  5
4C
100
AcDbSymbolTableRecord
100
AcDbLayerTableRecord
  2
MOVING
 70
     0
 62
     7
  6
CONTINUOUS
  0
ENDTAB
  0
TABLE
  2
STYLE
  5
3
100
AcDbSymbolTable
 70
     5
  0
STYLE
  5
F
100
AcDbSymbolTableRecord
100
AcDbTextStyleTableRecord
  2
STANDARD
 70
     0
 40
0.0
 41
1.0
 50
0.0
 71
     0
 42
247.5288659096885
  3
txt
  4

  0
STYLE
  5
4D
100
AcDbSymbolTableRecord
100
AcDbTextStyleTableRecord
  2
ITALIC
 70
     0
 40
0.0
 41
1.0
 50
0.0
 71
     0
 42
247.5288659096885
  3
ITALIC
  4

  0
STYLE
  5
4E
100
AcDbSymbolTableRecord
100
AcDbTextStyleTableRecord
  2
SIMPLEX
 70
     0
 40
0.0
 41
1.0
 50
0.0
 71
     0
 42
247.5288659096885
  3
SIMPLEX
  4

  0
STYLE
  5
4F
100
AcDbSymbolTableRecord
100
AcDbTextStyleTableRecord
  2
COMPLEX
 70
     0
 40
0.0
 41
1.0
 50
0.0
 71
     0
 42
247.5288659096885
  3
COMPLEX
  4

  0
STYLE
  5
50
100
AcDbSymbolTableRecord
100
AcDbTextStyleTableRecord
  2
ARIAL
 70
     0
 40
0.0
 41
1.0
 50
0.0
 71
     0
 42
247.5288659096885
  3
ARIAL.TTF
  4

1001
ACAD
1000
Arial
1071
        0
  0
ENDTAB
  0
TABLE
  2
VIEW
  5
6
100
AcDbSymbolTable
 70
     0
  0
ENDTAB
  0
TABLE
  2
UCS
  5
7
100
AcDbSymbolTable
 70
     0
  0
ENDTAB
  0
TABLE
  2
APPID
  5
9
100
AcDbSymbolTable
 70
     1
  0
APPID
  5
10
100
AcDbSymbolTableRecord
100
AcDbRegAppTableRecord
  2
ACAD
 70
     0
  0
ENDTAB
  0
TABLE
  2
DIMSTYLE
  5
A
100
AcDbSymbolTable
 70
     1
  0
DIMSTYLE
105
1D
100
AcDbSymbolTableRecord
100
AcDbDimStyleTableRecord
  2
STANDARD
 70
     0
  3

  4

  5

  6

  7

 40
1.0
 41
0.18
 42
0.0625
 43
0.38
 44
0.18
 45
0.0
 46
0.0
 47
0.0
 48
0.0
140
0.18
141
0.09
142
0.0
143
25.4
144
1.0
145
0.0
146
1.0
147
0.09
 71
     0
 72
     0
 73
     1
 74
     1
 75
     0
 76
     0
 77
     0
 78
     0
170
     0
171
     2
172
     0
173
     0
174
     0
175
     0
176
     0
177
     0
178
     0
270
     2
271
     4
272
     4
273
     2
274
     2
340
F
275
     0
280
     0
281
     0
282
     0
283
     1
284
     0
285
     0
286
     0
287
     3
288
     0
  0
ENDTAB
  0
TABLE
  2
BLOCK_RECORD
  5
1
100
AcDbSymbolTable
 70
     0
  0
BLOCK_RECORD
  5
18
100
AcDbSymbolTableRecord
100
AcDbBlockTableRecord
  2
*MODEL_SPACE
  0
BLOCK_RECORD
  5
15
100
AcDbSymbolTableRecord
100
AcDbBlockTableRecord
  2
*PAPER_SPACE
  0
ENDTAB
  0
ENDSEC
  0
SECTION
  2
BLOCKS
  0
BLOCK
  5
19
100
AcDbEntity
  8
0
100
AcDbBlockBegin
  2
*MODEL_SPACE
 70
     0
 10
0.0
 20
0.0
 30
0.0
  3
*MODEL_SPACE
  1

  0
ENDBLK
  5
1A
100
AcDbEntity
  8
0
100
AcDbBlockEnd
  0
BLOCK
  5
16
100
AcDbEntity
 67
     1
  8
0
100
AcDbBlockBegin
  2
*PAPER_SPACE
 70
     0
 10
0.0
 20
0.0
 30
0.0
  3
*PAPER_SPACE
  1

  0
ENDBLK
  5
17
100
AcDbEntity
 67
     1
  8
0
100
AcDbBlockEnd
  0
ENDSEC
  0
SECTION
  2
ENTITIES
  0
TEXT
  5
51
100
AcDbEntity
  8
COMMENTS
100
AcDbText
 10
3629.088388362788
 20
-5274.155686411202
 30
0.0
 40
24.75288659096885
  1
Latch for the 1.4m turret bin
 41
0.6
  7
ARIAL
 11
3629.088388362788
 21
-5274.155686411202
 31
0.0
100
AcDbText
 73
     1
  0
LINE
  5
52
100
AcDbEntity
  8
BIN
100
AcDbLine
 10
4036.589211569366
 20
-5567.741305042074
 30
0.0
 11
3888.907163023901
 21
-5572.683321236334
 31
0.0
  0
LINE
  5
53
100
AcDbEntity
  8
LID
100
AcDbLine
 10
4036.608606031359
 20
-5552.735058434034
 30
0.0
 11
3896.907163023946
 21
-5557.410012502618
 31
0.0
  0
LINE
  5
54
100
AcDbEntity
  8
BIN
100
AcDbLine
 10
3888.907163023901
 20
-5721.020824037903
 30
0.0
 11
3888.9071630239
 21
-5572.683321236335
 31
0.0
  0
LINE
  5
55
100
AcDbEntity
  8
LID
100
AcDbLine
 10
3896.907163023855
 20
-5567.415610096469
 30
0.0
 11
3896.907163023946
 21
-5557.410012502618
 31
0.0
  0
LINE
  5
56
100
AcDbEntity
  8
LID
100
AcDbLine
 10
3896.907163023855
 20
-5567.415610096469
 30
0.0
 11
4036.750685418009
 21
-5562.735901498563
 31
0.0
  0
LINE
  5
57
100
AcDbEntity
  8
BIN
100
AcDbLine
 10
3898.907163023812
 20
-5572.348682311504
 30
0.0
 11
3898.907163023876
 21
-5567.348682311502
 31
0.0
  0
LINE
  5
58
100
AcDbEntity
  8
LID
100
AcDbLine
 10
3822.733893863217
 20
-5557.410012502629
 30
0.0
 11
3629.546220405162
 21
-5557.410012502618
 31
0.0
  0
LINE
  5
59
100
AcDbEntity
  8
LID
100
AcDbLine
 10
3824.866234334035
 20
-5567.415610096467
 30
0.0
 11
3629.546220405071
 21
-5567.415610096469
 31
0.0
  0
LINE
  5
5A
100
AcDbEntity
  8
BIN
100
AcDbLine
 10
3825.988861298268
 20
-5572.68332123633
 30
0.0
 11
3621.546220405117
 21
-5572.683321236334
 31
0.0
  0
ARC
  5
5B
100
AcDbEntity
  8
BIN
100
AcDbCircle
 10
3739.531337441013
 20
-3862.351760177244
 30
0.0
 40
1559.999999999999
100
AcDbArc
 50
264.1907244199302
 51
274.1210109409181
  0
LINE
  5
5C
100
AcDbEntity
  8
AXES
100
AcDbLine
 10
3739.531337441013
 20
-5363.003427295698
 30
0.0
 11
3739.531337441013
 21
-5685.651477339644
 31
0.0
  0
LINE
  5
5D
100
AcDbEntity
  8
FIXED
100
AcDbLine
 10
3762.031337441009
 20
-5546.763204100859
 30
0.0
 11
3762.031337441021
 21
-5557.76320410087
 31
0.0
  0
LINE
  5
5E
100
AcDbEntity
  8
FIXED
100
AcDbLine
 10
3717.031337441014
 20
-5546.763204100859
 30
0.0
 11
3717.031337441019
 21
-5557.76320410087
 31
0.0
  0
LINE
  5
5F
100
AcDbEntity
  8
FIXED
100
AcDbLine
 10
3732.031337441014
 20
-5546.763204100859
 30
0.0
 11
3732.03133744102
 21
-5557.76320410087
 31
0.0
  0
LINE
  5
60
100
AcDbEntity
  8
FIXED
100
AcDbLine
 10
3747.031337441014
 20
-5546.763204100859
 30
0.0
 11
3747.031337441019
 21
-5557.76320410087
 31
0.0
  0
LINE
  5
61
100
AcDbEntity
  8
FIXED
100
AcDbLine
 10
3762.031337441009
 20
-5546.763204100862
 30
0.0
 11
3747.031337440997
 21
-5546.763204100777
 31
0.0
  0
LINE
  5
62
100
AcDbEntity
  8
FIXED
100
AcDbLine
 10
3732.031337440855
 20
-5546.763204100891
 30
0.0
 11
3717.031337441014
 21
-5546.763204100862
 31
0.0
  0
LINE
  5
63
100
AcDbEntity
  8
FIXED
100
AcDbLine
 10
3762.031337441009
 20
-5557.763204100862
 30
0.0
 11
3747.031337441002
 21
-5557.763204100837
 31
0.0
  0
LINE
  5
64
100
AcDbEntity
  8
FIXED
100
AcDbLine
 10
3732.031337440861
 20
-5557.763204100842
 30
0.0
 11
3717.031337441014
 21
-5557.763204100862
 31
0.0
  0
LINE
  5
65
100
AcDbEntity
  8
FIXED
100
AcDbLine
 10
3926.157819196127
 20
-5556.455000496771
 30
0.0
 11
3926.108871401691
 21
-5554.955799338341
 31
0.0
  0
LINE
  5
66
100
AcDbEntity
  8
FIXED
100
AcDbLine
 10
3926.157819196127
 20
-5556.455000496771
 30
0.0
 11
3886.179121638154
 21
-5557.7602750151
 31
0.0
  0
LINE
  5
67
100
AcDbEntity
  8
FIXED
100
AcDbLine
 10
3886.130173843715
 20
-5556.261073856671
 30
0.0
 11
3926.108871401691
 21
-5554.955799338341
 31
0.0
  0
LINE
  5
68
100
AcDbEntity
  8
FIXED
100
AcDbLine
 10
3889.012733530435
 20
-5554.894041590249
 30
0.0
 11
3890.142641207395
 21
-5555.880605648766
 31
0.0
  0
ARC
  5
69
100
AcDbEntity
  8
FIXED
100
AcDbCircle
 10
3885.999646391885
 20
-5552.263204100873
 30
0.0
 40
3.999999999999999
100
AcDbArc
 50
318.8745903983464
 51
271.8699999999999
  0
ARC
  5
6A
100
AcDbEntity
  8
FIXED
100
AcDbCircle
 10
3885.999646391885
 20
-5552.263204100873
 30
0.0
 40
5.500000000005968
100
AcDbArc
 50
318.8745903983409
 51
271.8699999999999
  0
LINE
  5
6B
100
AcDbEntity
  8
FIXED
100
AcDbLine
 10
3918.151684808385
 20
-5556.716394785391
 30
0.0
 11
3912.147084017524
 21
-5556.912440501827
 31
0.0
  0
LINE
  5
6C
100
AcDbEntity
  8
FIXED
100
AcDbLine
 10
3747.031337441002
 20
-5557.671206508032
 30
0.0
 11
3732.031337441074
 21
-5557.671206508021
 31
0.0
  0
LINE
  5
6D
100
AcDbEntity
  8
FIXED
100
AcDbLine
 10
3747.031337441002
 20
-5556.171206508032
 30
0.0
 11
3732.031337441074
 21
-5556.171206508021
 31
0.0
  0
LINE
  5
6E
100
AcDbEntity
  8
FIXED
100
AcDbLine
 10
3747.031337441002
 20
-5554.955799338359
 30
0.0
 11
3732.031337441073
 21
-5554.955799338348
 31
0.0
  0
LINE
  5
6F
100
AcDbEntity
  8
AXES
100
AcDbLine
 10
3852.46135790426
 20
-5458.797565296897
 30
0.0
 11
3926.556467313949
 21
-5384.702455887197
 31
0.0
  0
LINE
  5
70
100
AcDbEntity
  8
FIXED
100
AcDbLine
 10
3762.031337440892
 20
-5385.150051799481
 30
0.0
 11
3717.031337441052
 21
-5385.150051799492
 31
0.0
  0
LINE
  5
71
100
AcDbEntity
  8
FIXED
100
AcDbLine
 10
3717.031337441067
 20
-5385.150051799492
 30
0.0
 11
3717.031337441019
 21
-5430.75927680931
 31
0.0
  0
LINE
  5
72
100
AcDbEntity
  8
FIXED
100
AcDbLine
 10
3732.031337441014
 20
-5419.759276809298
 30
0.0
 11
3732.03133744102
 21
-5430.75927680931
 31
0.0
  0
LINE
  5
73
100
AcDbEntity
  8
FIXED
100
AcDbLine
 10
3732.031337440855
 20
-5419.75927680933
 30
0.0
 11
3717.031337441014
 21
-5419.759276809301
 31
0.0
  0
LINE
  5
74
100
AcDbEntity
  8
FIXED
100
AcDbLine
 10
3732.031337440861
 20
-5430.759276809282
 30
0.0
 11
3717.031337441014
 21
-5430.759276809301
 31
0.0
  0
LINE
  5
75
100
AcDbEntity
  8
FIXED
100
AcDbLine
 10
3762.031337440906
 20
-5385.150051799492
 30
0.0
 11
3762.031337441021
 21
-5430.75927680931
 31
0.0
  0
LINE
  5
76
100
AcDbEntity
  8
FIXED
100
AcDbLine
 10
3747.031337441014
 20
-5419.759276809298
 30
0.0
 11
3747.031337441019
 21
-5430.75927680931
 31
0.0
  0
LINE
  5
77
100
AcDbEntity
  8
FIXED
100
AcDbLine
 10
3762.031337441009
 20
-5419.759276809301
 30
0.0
 11
3747.031337440997
 21
-5419.759276809216
 31
0.0
  0
LINE
  5
78
100
AcDbEntity
  8
FIXED
100
AcDbLine
 10
3762.031337441009
 20
-5430.759276809301
 30
0.0
 11
3747.031337441002
 21
-5430.759276809276
 31
0.0
  0
LINE
  5
79
100
AcDbEntity
  8
FIXED
100
AcDbLine
 10
3747.03133744094
 20
-5422.351760177297
 30
0.0
 11
3732.031337441012
 21
-5422.351760177331
 31
0.0
  0
LINE
  5
7A
100
AcDbEntity
  8
AXES
100
AcDbLine
 10
3910.013707187943
 20
-5612.683321236335
 30
0.0
 11
3706.115211997541
 21
-5612.683321236335
 31
0.0
  0
ARC
  5
7B
100
AcDbEntity
  8
LID
100
AcDbCircle
 10
3739.531337441013
 20
-3862.351760177244
 30
0.0
 40
1551.999999999056
100
AcDbArc
 50
265.4914689756242
 51
274.25956155987
  0
ARC
  5
7C
100
AcDbEntity
  8
FIXED
100
AcDbCircle
 10
3880.907163023895
 20
-5612.683321236339
 30
0.0
 40
7.0
100
AcDbArc
 50
90.00000000000005
 51
270.0
  0
ARC
  5
7D
100
AcDbEntity
  8
FIXED
100
AcDbCircle
 10
3880.907163023895
 20
-5612.683321236339
 30
0.0
 40
12.0
100
AcDbArc
 50
90.00000000000005
 51
270.0
  0
LINE
  5
7E
100
AcDbEntity
  8
FIXED
100
AcDbLine
 10
3880.907163023895
 20
-5600.683321236338
 30
0.0
 11
3887.907163023827
 21
-5600.683321236481
 31
0.0
  0
LINE
  5
7F
100
AcDbEntity
  8
FIXED
100
AcDbLine
 10
3880.907163023895
 20
-5605.683321236339
 30
0.0
 11
3887.907163023827
 21
-5605.683321236053
 31
0.0
  0
LINE
  5
80
100
AcDbEntity
  8
FIXED
100
AcDbLine
 10
3880.907163023895
 20
-5619.683321236338
 30
0.0
 11
3887.907163023827
 21
-5619.683321236265
 31
0.0
  0
LINE
  5
81
100
AcDbEntity
  8
FIXED
100
AcDbLine
 10
3880.907163023895
 20
-5624.683321236339
 30
0.0
 11
3887.907163023827
 21
-5624.683321236424
 31
0.0
  0
LINE
  5
82
100
AcDbEntity
  8
FIXED
100
AcDbLine
 10
3742.031337441012
 20
-5603.183321236339
 30
0.0
 11
3742.031337441012
 21
-5622.183321236333
 31
0.0
  0
LINE
  5
83
100
AcDbEntity
  8
FIXED
100
AcDbLine
 10
3737.031337441013
 20
-5603.183321236339
 30
0.0
 11
3737.031337441013
 21
-5622.183321236333
 31
0.0
  0
ARC
  5
84
100
AcDbEntity
  8
FIXED
100
AcDbCircle
 10
3739.531337441012
 20
-5603.183321236339
 30
0.0
 40
2.499999999992934
100
AcDbArc
 50
0.0
 51
180.0
  0
ARC
  5
85
100
AcDbEntity
  8
FIXED
100
AcDbCircle
 10
3739.531337441012
 20
-5622.183321236333
 30
0.0
 40
2.499999999992934
100
AcDbArc
 50
180.0
 51
0.0
  0
LWPOLYLINE
  5
86
100
AcDbEntity
  8
FIXED
100
AcDbPolyline
 90
        4
 70
     1
 43
0.0
 10
3729.531337441009
 20
-5592.683321236348
 10
3749.531337441015
 20
-5592.683321236348
 10
3749.531337441015
 20
-5632.683321236329
 10
3729.531337441009
 20
-5632.683321236329
  0
LINE
  5
87
100
AcDbEntity
  8
FIXED
100
AcDbLine
 10
3888.907163023895
 20
-5592.683321236347
 30
0.0
 11
3888.907163023895
 21
-5632.683321236328
 31
0.0
  0
LINE
  5
88
100
AcDbEntity
  8
FIXED
100
AcDbLine
 10
3887.907163023896
 20
-5592.683321236347
 30
0.0
 11
3887.907163023896
 21
-5632.683321236328
 31
0.0
  0
LINE
  5
89
100
AcDbEntity
  8
FIXED
100
AcDbLine
 10
3887.907163023896
 20
-5592.683321236347
 30
0.0
 11
3888.907163023895
 21
-5592.683321236347
 31
0.0
  0
LINE
  5
8A
100
AcDbEntity
  8
FIXED
100
AcDbLine
 10
3887.907163023896
 20
-5632.683321236328
 30
0.0
 11
3888.907163023895
 21
-5632.683321236328
 31
0.0
  0
LINE
  5
8B
100
AcDbEntity
  8
MOVING
100
AcDbLine
 10
3749.531337441013
 20
-5602.963237590484
 30
0.0
 11
3749.531337441013
 21
-5624.683321236325
 31
0.0
  0
LINE
  5
8C
100
AcDbEntity
  8
MOVING
100
AcDbLine
 10
3744.531337441012
 20
-5602.963237590211
 30
0.0
 11
3744.531337441012
 21
-5624.683321236325
 31
0.0
  0
LINE
  5
8D
100
AcDbEntity
  8
MOVING
100
AcDbLine
 10
3744.531337441012
 20
-5559.987938028754
 30
0.0
 11
3744.531337441012
 21
-5590.819644050644
 31
0.0
  0
LINE
  5
8E
100
AcDbEntity
  8
MOVING
100
AcDbLine
 10
3739.531337441012
 20
-5559.987938028754
 30
0.0
 11
3739.531337441012
 21
-5590.819644051235
 31
0.0
  0
LINE
  5
8F
100
AcDbEntity
  8
MOVING
100
AcDbLine
 10
3740.73710880703
 20
-5595.319644051205
 30
0.0
 11
3743.995439056014
 21
-5600.963237590287
 31
0.0
  0
LINE
  5
90
100
AcDbEntity
  8
MOVING
100
AcDbLine
 10
3745.067235825692
 20
-5592.819644050751
 30
0.0
 11
3748.325566075055
 21
-5598.463237590483
 31
0.0
  0
ARC
  5
91
100
AcDbEntity
  8
MOVING
100
AcDbCircle
 10
3748.531337441011
 20
-5590.819644050644
 30
0.0
 40
3.999999999999999
100
AcDbArc
 50
180.0000000000102
 51
210.0000000000063
  0
ARC
  5
92
100
AcDbEntity
  8
MOVING
100
AcDbCircle
 10
3740.531337441007
 20
-5602.963237590211
 30
0.0
 40
3.999999999999999
100
AcDbArc
 50
0.0
 51
29.9999999999905
  0
ARC
  5
93
100
AcDbEntity
  8
MOVING
100
AcDbCircle
 10
3748.531337441039
 20
-5590.819644051235
 30
0.0
 40
8.999999999999998
100
AcDbArc
 50
180.0000000000046
 51
209.9999999999991
  0
ARC
  5
94
100
AcDbEntity
  8
MOVING
100
AcDbCircle
 10
3740.531337441
 20
-5602.963237590484
 30
0.0
 40
8.999999999999998
100
AcDbArc
 50
0.0
 51
30.00000000001991
  0
ARC
  5
95
100
AcDbEntity
  8
MOVING
100
AcDbCircle
 10
3739.531337441012
 20
-5624.683321236325
 30
0.0
 40
4.999999999936778
100
AcDbArc
 50
180.0
 51
0.0
  0
ARC
  5
96
100
AcDbEntity
  8
MOVING
100
AcDbCircle
 10
3739.531337441012
 20
-5624.683321236325
 30
0.0
 40
10.0000000000201
100
AcDbArc
 50
180.0
 51
0.0
  0
LINE
  5
97
100
AcDbEntity
  8
MOVING
100
AcDbLine
 10
3729.531337441013
 20
-5602.963237590484
 30
0.0
 11
3729.531337441013
 21
-5624.683321236325
 31
0.0
  0
LINE
  5
98
100
AcDbEntity
  8
MOVING
100
AcDbLine
 10
3734.531337441013
 20
-5602.963237590211
 30
0.0
 11
3734.531337441013
 21
-5624.683321236325
 31
0.0
  0
LINE
  5
99
100
AcDbEntity
  8
MOVING
100
AcDbLine
 10
3734.531337441013
 20
-5559.987938028754
 30
0.0
 11
3734.531337441013
 21
-5590.819644050644
 31
0.0
  0
LINE
  5
9A
100
AcDbEntity
  8
MOVING
100
AcDbLine
 10
3738.325566074996
 20
-5595.319644051205
 30
0.0
 11
3735.067235826011
 21
-5600.963237590287
 31
0.0
  0
LINE
  5
9B
100
AcDbEntity
  8
MOVING
100
AcDbLine
 10
3733.995439056334
 20
-5592.819644050751
 30
0.0
 11
3730.73710880697
 21
-5598.463237590483
 31
0.0
  0
ARC
  5
9C
100
AcDbEntity
  8
MOVING
100
AcDbCircle
 10
3730.531337441014
 20
-5590.819644050644
 30
0.0
 40
3.999999999999999
100
AcDbArc
 50
329.9999999999936
 51
359.9999999999897
  0
ARC
  5
9D
100
AcDbEntity
  8
MOVING
100
AcDbCircle
 10
3738.531337441019
 20
-5602.963237590211
 30
0.0
 40
3.999999999999999
100
AcDbArc
 50
150.0000000000095
 51
180.0
  0
ARC
  5
9E
100
AcDbEntity
  8
MOVING
100
AcDbCircle
 10
3730.531337440986
 20
-5590.819644051235
 30
0.0
 40
8.999999999999998
100
AcDbArc
 50
330.0000000000008
 51
359.9999999999953
  0
ARC
  5
9F
100
AcDbEntity
  8
MOVING
100
AcDbCircle
 10
3738.531337441026
 20
-5602.963237590484
 30
0.0
 40
8.999999999999998
100
AcDbArc
 50
149.99999999998
 51
180.0
  0
LINE
  5
A0
100
AcDbEntity
  8
MOVING
100
AcDbLine
 10
3887.907163023896
 20
-5553.487938028772
 30
0.0
 11
3887.907163023896
 21
-5632.183321236341
 31
0.0
  0
LINE
  5
A1
100
AcDbEntity
  8
MOVING
100
AcDbLine
 10
3882.907163023896
 20
-5553.487938028772
 30
0.0
 11
3882.907163023896
 21
-5632.183321236341
 31
0.0
  0
ARC
  5
A2
100
AcDbEntity
  8
MOVING
100
AcDbCircle
 10
3885.407163023896
 20
-5632.183321236341
 30
0.0
 40
2.500000000000153
100
AcDbArc
 50
180.0
 51
0.0
  0
ARC
  5
A3
100
AcDbEntity
  8
MOVING
100
AcDbCircle
 10
3748.531337440976
 20
-5559.987938028754
 30
0.0
 40
3.999999999999999
100
AcDbArc
 50
112.0243128363803
 51
179.9999999999896
  0
ARC
  5
A4
100
AcDbEntity
  8
MOVING
100
AcDbCircle
 10
3748.531337441089
 20
-5559.987938028754
 30
0.0
 40
8.999999999999998
100
AcDbArc
 50
99.59406822732889
 51
179.9999999999908
  0
ARC
  5
A5
100
AcDbEntity
  8
MOVING
100
AcDbCircle
 10
3730.531337441049
 20
-5559.987938028754
 30
0.0
 40
3.999999999999999
100
AcDbArc
 50
0.0000000000103304
 51
67.97568716361961
  0
ARC
  5
A6
100
AcDbEntity
  8
MOVING
100
AcDbCircle
 10
3730.531337440937
 20
-5559.987938028754
 30
0.0
 40
8.999999999999998
100
AcDbArc
 50
0.00000000000916
 51
80.4059317726711
  0
CIRCLE
  5
A7
100
AcDbEntity
  8
MOVING
100
AcDbCircle
 10
3885.407163023896
 20
-5553.487938028772
 30
0.0
 40
2.500000000000153
  0
LINE
  5
A8
100
AcDbEntity
  8
MOVING
100
AcDbLine
 10
3742.031337441012
 20
-5423.351760177296
 30
0.0
 11
3747.031337440941
 21
-5423.351760177296
 31
0.0
  0
LINE
  5
A9
100
AcDbEntity
  8
MOVING
100
AcDbLine
 10
3742.031337441012
 20
-5428.351760177296
 30
0.0
 11
3747.031337440941
 21
-5428.351760177296
 31
0.0
  0
ARC
  5
AA
100
AcDbEntity
  8
MOVING
100
AcDbCircle
 10
3742.031337441012
 20
-5425.851760177295
 30
0.0
 40
2.499999999999999
100
AcDbArc
 50
90.00000000000005
 51
270.0
  0
LINE
  5
AB
100
AcDbEntity
  8
MOVING
100
AcDbLine
 10
3737.031337441013
 20
-5423.351760177296
 30
0.0
 11
3732.031337441085
 21
-5423.351760177296
 31
0.0
  0
LINE
  5
AC
100
AcDbEntity
  8
MOVING
100
AcDbLine
 10
3737.031337441013
 20
-5428.351760177296
 30
0.0
 11
3732.031337441085
 21
-5428.351760177296
 31
0.0
  0
ARC
  5
AD
100
AcDbEntity
  8
MOVING
100
AcDbCircle
 10
3737.031337441013
 20
-5425.851760177295
 30
0.0
 40
2.499999999999999
100
AcDbArc
 50
269.9999999999999
 51
89.99999999999992
  0
TEXT
  5
AE
100
AcDbEntity
  8
COMMENTS
100
AcDbText
 10
3964.268633369712
 20
-5677.888118141735
 30
0.0
 40
4.95057731819377
  1
Drg version 1.1 / 20 July 2017
 41
0.6000000000000001
  7
ARIAL
 11
3964.268633369712
 21
-5677.888118141735
 31
0.0
100
AcDbText
 73
     1
  0
TEXT
  5
AF
100
AcDbEntity
  8
COMMENTS
100
AcDbText
 10
3964.268633369712
 20
-5685.313984119026
 30
-7.425865977290656
 40
4.95057731819377
  1
Copyright David Byrden
 41
0.6000000000000001
  7
ARIAL
 11
3964.268633369712
 21
-5685.313984119026
 31
-7.425865977290656
100
AcDbText
 73
     1
  0
TEXT
  5
B0
100
AcDbEntity
  8
COMMENTS
100
AcDbText
 10
3566.65755199565
 20
-5662.577872005925
 30
0.0
 40
7.425865977290658
  1
Based on blurry photos 
 41
0.6
  7
ARIAL
 11
3566.65755199565
 21
-5662.577872005925
 31
0.0
100
AcDbText
 73
     1
  0
TEXT
  5
B1
100
AcDbEntity
  8
COMMENTS
100
AcDbText
 10
3566.65755199565
 20
-5673.716670971862
 30
-11.13879896593598
 40
7.425865977290658
  1
and a similar WW2 latch 
 41
0.6
  7
ARIAL
 11
3566.65755199565
 21
-5673.716670971862
 31
-11.13879896593598
100
AcDbText
 73
     1
  0
TEXT
  5
B2
100
AcDbEntity
  8
COMMENTS
100
AcDbText
 10
3566.65755199565
 20
-5684.855469937798
 30
-22.27759793187197
 40
7.425865977290658
  1
from another source.
 41
0.6
  7
ARIAL
 11
3566.65755199565
 21
-5684.855469937798
 31
-22.27759793187197
100
AcDbText
 73
     1
  0
LINE
  5
B3
100
AcDbEntity
  8
FIXED
100
AcDbLine
 10
3742.031337441012
 20
-5439.851760177242
 30
0.0
 11
3742.031337441012
 21
-5428.351760177585
 31
0.0
  0
LINE
  5
B4
100
AcDbEntity
  8
FIXED
100
AcDbLine
 10
3737.031337441013
 20
-5439.851760177242
 30
0.0
 11
3737.031337441013
 21
-5428.351760177585
 31
0.0
  0
ARC
  5
B5
100
AcDbEntity
  8
FIXED
100
AcDbCircle
 10
3739.531337441013
 20
-5439.851760177242
 30
0.0
 40
2.499999999999999
100
AcDbArc
 50
180.0
 51
0.0
  0
ENDSEC
  0
SECTION
  2
OBJECTS
  0
DICTIONARY
  5
C
100
AcDbDictionary
  3
ACAD_GROUP
350
D
  3
ACAD_MLINESTYLE
350
1B
  3
ACDBVARIABLEDICTIONARY
350
1E
  0
DICTIONARY
  5
D
102
{ACAD_REACTORS
330
C
102
}
100
AcDbDictionary
  0
DICTIONARY
  5
1B
102
{ACAD_REACTORS
330
C
102
}
100
AcDbDictionary
  3
STANDARD
350
1C
  0
DICTIONARY
  5
1E
102
{ACAD_REACTORS
330
C
102
}
100
AcDbDictionary
  3
DIMADEC
350
1F
  0
MLINESTYLE
  5
1C
102
{ACAD_REACTORS
330
1B
102
}
100
AcDbMlineStyle
  2
STANDARD
 70
     0
  3

 62
   256
 51
90.0
 52
90.0
 71
     2
 49
0.5
 62
   256
  6
BYLAYER
 49
-0.5
 62
   256
  6
BYLAYER
  0
DICTIONARYVAR
  5
1F
102
{ACAD_REACTORS
330
1E
102
}
100
DictionaryVariables
280
     0
  1
-1
  0
ENDSEC
  0
EOF
