  0
SECTION
  2
HEADER
  9
$ACADVER
  1
AC1014
  9
$ACADMAINTVER
 70
     5
  9
$DWGCODEPAGE
  3
ANSI_1252
  9
$INSBASE
 10
0.0
 20
0.0
 30
0.0
  9
$EXTMIN
 10
1.000000000000000E+20
 20
1.000000000000000E+20
 30
1.000000000000000E+20
  9
$EXTMAX
 10
-1.000000000000000E+20
 20
-1.000000000000000E+20
 30
-1.000000000000000E+20
  9
$LIMMIN
 10
0.0
 20
0.0
  9
$LIMMAX
 10
12.0
 20
9.0
  9
$ORTHOMODE
 70
     0
  9
$REGENMODE
 70
     1
  9
$FILLMODE
 70
     1
  9
$QTEXTMODE
 70
     0
  9
$MIRRTEXT
 70
     1
  9
$DRAGMODE
 70
     2
  9
$LTSCALE
 40
1.0
  9
$OSMODE
 70
     0
  9
$ATTMODE
 70
     0
  9
$TEXTSIZE
 40
76.88032662602641
  9
$TRACEWID
 40
0.05
  9
$TEXTSTYLE
  7
STANDARD
  9
$CLAYER
  8
0
  9
$CELTYPE
  6
BYLAYER
  9
$CECOLOR
 62
   256
  9
$CELTSCALE
 40
1.0
  9
$DELOBJ
 70
     1
  9
$DISPSILH
 70
     0
  9
$DIMSCALE
 40
1.0
  9
$DIMASZ
 40
0.18
  9
$DIMEXO
 40
0.0625
  9
$DIMDLI
 40
0.38
  9
$DIMRND
 40
0.0
  9
$DIMDLE
 40
0.0
  9
$DIMEXE
 40
0.18
  9
$DIMTP
 40
0.0
  9
$DIMTM
 40
0.0
  9
$DIMTXT
 40
0.1513392256417843
  9
$DIMCEN
 40
0.09
  9
$DIMTSZ
 40
0.0
  9
$DIMTOL
 70
     0
  9
$DIMLIM
 70
     0
  9
$DIMTIH
 70
     1
  9
$DIMTOH
 70
     1
  9
$DIMSE1
 70
     0
  9
$DIMSE2
 70
     0
  9
$DIMTAD
 70
     0
  9
$DIMZIN
 70
     0
  9
$DIMBLK
  1

  9
$DIMASO
 70
     1
  9
$DIMSHO
 70
     1
  9
$DIMPOST
  1

  9
$DIMAPOST
  1

  9
$DIMALT
 70
     0
  9
$DIMALTD
 70
     2
  9
$DIMALTF
 40
25.4
  9
$DIMLFAC
 40
1.0
  9
$DIMTOFL
 70
     0
  9
$DIMTVP
 40
0.0
  9
$DIMTIX
 70
     0
  9
$DIMSOXD
 70
     0
  9
$DIMSAH
 70
     0
  9
$DIMBLK1
  1

  9
$DIMBLK2
  1

  9
$DIMSTYLE
  2
STANDARD
  9
$DIMCLRD
 70
     0
  9
$DIMCLRE
 70
     0
  9
$DIMCLRT
 70
     0
  9
$DIMTFAC
 40
1.0
  9
$DIMGAP
 40
0.09
  9
$DIMJUST
 70
     0
  9
$DIMSD1
 70
     0
  9
$DIMSD2
 70
     0
  9
$DIMTOLJ
 70
     1
  9
$DIMTZIN
 70
     0
  9
$DIMALTZ
 70
     0
  9
$DIMALTTZ
 70
     0
  9
$DIMFIT
 70
     3
  9
$DIMUPT
 70
     0
  9
$DIMUNIT
 70
     4
  9
$DIMDEC
 70
    -1
  9
$DIMTDEC
 70
     4
  9
$DIMALTU
 70
     2
  9
$DIMALTTD
 70
     2
  9
$DIMTXSTY
  7
STANDARD
  9
$DIMAUNIT
 70
     1
  9
$LUNITS
 70
     2
  9
$LUPREC
 70
     0
  9
$SKETCHINC
 40
0.1
  9
$FILLETRAD
 40
1.999999999999999
  9
$AUNITS
 70
     0
  9
$AUPREC
 70
     2
  9
$MENU
  1
.
  9
$ELEVATION
 40
0.0
  9
$PELEVATION
 40
0.0
  9
$THICKNESS
 40
0.0
  9
$LIMCHECK
 70
     0
  9
$BLIPMODE
 70
     0
  9
$CHAMFERA
 40
5.0
  9
$CHAMFERB
 40
5.0
  9
$CHAMFERC
 40
0.0
  9
$CHAMFERD
 40
0.0
  9
$SKPOLY
 70
     0
  9
$TDCREATE
 40
0.0000000000
  9
$TDUPDATE
 40
0.0000000000
  9
$TDINDWG
 40
0.0000000000
  9
$TDUSRTIMER
 40
0.0000000000
  9
$USRTIMER
 70
     1
  9
$ANGBASE
 50
0.0
  9
$ANGDIR
 70
     0
  9
$PDMODE
 70
     0
  9
$PDSIZE
 40
0.0
  9
$PLINEWID
 40
0.0
  9
$COORDS
 70
     1
  9
$SPLFRAME
 70
     0
  9
$SPLINETYPE
 70
     6
  9
$SPLINESEGS
 70
     8
  9
$ATTDIA
 70
     0
  9
$ATTREQ
 70
     1
  9
$HANDLING
 70
     1
  9
$HANDSEED
  5
B8
  9
$SURFTAB1
 70
     6
  9
$SURFTAB2
 70
     6
  9
$SURFTYPE
 70
     6
  9
$SURFU
 70
     6
  9
$SURFV
 70
     6
  9
$UCSNAME
  2

  9
$UCSORG
 10
0.0
 20
0.0
 30
0.0
  9
$UCSXDIR
 10
1.0
 20
0.0
 30
0.0
  9
$UCSYDIR
 10
0.0
 20
1.0
 30
0.0
  9
$PUCSNAME
  2

  9
$PUCSORG
 10
0.0
 20
0.0
 30
0.0
  9
$PUCSXDIR
 10
1.0
 20
0.0
 30
0.0
  9
$PUCSYDIR
 10
0.0
 20
1.0
 30
0.0
  9
$USERI1
 70
     0
  9
$USERI2
 70
     0
  9
$USERI3
 70
     0
  9
$USERI4
 70
     0
  9
$USERI5
 70
     0
  9
$USERR1
 40
0.0
  9
$USERR2
 40
0.0
  9
$USERR3
 40
0.0
  9
$USERR4
 40
0.0
  9
$USERR5
 40
0.0
  9
$WORLDVIEW
 70
     1
  9
$SHADEDGE
 70
     3
  9
$SHADEDIF
 70
    70
  9
$TILEMODE
 70
     1
  9
$MAXACTVP
 70
    48
  9
$PINSBASE
 10
0.0
 20
0.0
 30
0.0
  9
$PLIMCHECK
 70
     0
  9
$PEXTMIN
 10
1.000000000000000E+20
 20
1.000000000000000E+20
 30
1.000000000000000E+20
  9
$PEXTMAX
 10
-1.000000000000000E+20
 20
-1.000000000000000E+20
 30
-1.000000000000000E+20
  9
$PLIMMIN
 10
0.0
 20
0.0
  9
$PLIMMAX
 10
12.0
 20
9.0
  9
$UNITMODE
 70
     0
  9
$VISRETAIN
 70
     1
  9
$PLINEGEN
 70
     0
  9
$PSLTSCALE
 70
     1
  9
$TREEDEPTH
 70
  3020
  9
$PICKSTYLE
 70
     1
  9
$CMLSTYLE
  2
STANDARD
  9
$CMLJUST
 70
     0
  9
$CMLSCALE
 40
1.0
  9
$PROXYGRAPHICS
 70
     1
  9
$MEASUREMENT
 70
     0
  0
ENDSEC
  0
SECTION
  2
CLASSES
  0
CLASS
  1
DICTIONARYVAR
  2
AcDbDictionaryVar
  3
"AutoCAD"
 90
        0
280
     0
281
     0
  0
CLASS
  1
LWPOLYLINE
  2
AcDbPolyline
  3
"AutoCAD"
 90
        0
280
     0
281
     1
  0
ENDSEC
  0
SECTION
  2
TABLES
  0
TABLE
  2
VPORT
  5
8
100
AcDbSymbolTable
 70
     1
  0
VPORT
  5
11
100
AcDbSymbolTableRecord
100
AcDbViewportTableRecord
  2
*ACTIVE
 70
     0
 10
0.0
 20
0.0
 11
1.0
 21
1.0
 12
3.6
 22
4.5
 13
0.0
 23
0.0
 14
1.0
 24
1.0
 15
0.0
 25
0.0
 16
0.0
 26
0.0
 36
1.0
 17
0.0
 27
0.0
 37
0.0
 40
15.0
 41
0.8
 42
50.0
 43
0.0
 44
0.0
 50
0.0
 51
0.0
 71
     0
 72
   100
 73
     1
 74
     1
 75
     0
 76
     0
 77
     0
 78
     0
  0
ENDTAB
  0
TABLE
  2
LTYPE
  5
5
100
AcDbSymbolTable
 70
    40
  0
LTYPE
  5
12
100
AcDbSymbolTableRecord
100
AcDbLinetypeTableRecord
  2
BYBLOCK
 70
     0
  3

 72
    65
 73
     0
 40
0.0
  0
LTYPE
  5
13
100
AcDbSymbolTableRecord
100
AcDbLinetypeTableRecord
  2
BYLAYER
 70
     0
  3

 72
    65
 73
     0
 40
0.0
  0
LTYPE
  5
14
100
AcDbSymbolTableRecord
100
AcDbLinetypeTableRecord
  2
CONTINUOUS
 70
     0
  3
Solid line
 72
    65
 73
     0
 40
0.0
  0
LTYPE
  5
20
100
AcDbSymbolTableRecord
100
AcDbLinetypeTableRecord
  2
HIDDEN
 70
     0
  3
_ _ _ _ _ _ _ _ _ _ _ _ _ _ 
 72
    65
 73
     2
 40
9.524999999999998
 49
6.349999999999999
 74
     0
 49
-3.174999999999999
 74
     0
  0
LTYPE
  5
21
100
AcDbSymbolTableRecord
100
AcDbLinetypeTableRecord
  2
DASHED
 70
     0
  3
__ __ __ __ __ __ __ __ __ 
 72
    65
 73
     2
 40
19.04999999999999
 49
12.7
 74
     0
 49
-6.349999999999999
 74
     0
  0
LTYPE
  5
22
100
AcDbSymbolTableRecord
100
AcDbLinetypeTableRecord
  2
CENTER
 70
     0
  3
____ _ ____ _ ____ _ ____ _ 
 72
    65
 73
     4
 40
50.8
 49
31.75
 74
     0
 49
-6.349999999999999
 74
     0
 49
6.349999999999999
 74
     0
 49
-6.349999999999999
 74
     0
  0
LTYPE
  5
23
100
AcDbSymbolTableRecord
100
AcDbLinetypeTableRecord
  2
PHANTOM
 70
     0
  3
_____ _ _ _____ _ _ _____ _ _ 
 72
    65
 73
     6
 40
63.50000000000001
 49
31.75
 74
     0
 49
-6.349999999999999
 74
     0
 49
6.349999999999999
 74
     0
 49
-6.349999999999999
 74
     0
 49
6.349999999999999
 74
     0
 49
-6.349999999999999
 74
     0
  0
LTYPE
  5
24
100
AcDbSymbolTableRecord
100
AcDbLinetypeTableRecord
  2
DOT
 70
     0
  3
...........................
 72
    65
 73
     2
 40
6.349999999999999
 49
0.0
 74
     0
 49
-6.349999999999999
 74
     0
  0
LTYPE
  5
25
100
AcDbSymbolTableRecord
100
AcDbLinetypeTableRecord
  2
DASHDOT
 70
     0
  3
__ . __ . __ . __ . __ . __ . 
 72
    65
 73
     4
 40
25.4
 49
12.7
 74
     0
 49
-6.349999999999999
 74
     0
 49
0.0
 74
     0
 49
-6.349999999999999
 74
     0
  0
LTYPE
  5
26
100
AcDbSymbolTableRecord
100
AcDbLinetypeTableRecord
  2
DIVIDE
 70
     0
  3
__ . . __ . . __ . . __ . . 
 72
    65
 73
     6
 40
31.75
 49
12.7
 74
     0
 49
-6.349999999999999
 74
     0
 49
0.0
 74
     0
 49
-6.349999999999999
 74
     0
 49
0.0
 74
     0
 49
-6.349999999999999
 74
     0
  0
LTYPE
  5
27
100
AcDbSymbolTableRecord
100
AcDbLinetypeTableRecord
  2
BORDER
 70
     0
  3
__ __ . __ __ . __ __ . __ __ .
 72
    65
 73
     6
 40
44.44999999999999
 49
12.7
 74
     0
 49
-6.349999999999999
 74
     0
 49
12.7
 74
     0
 49
-6.349999999999999
 74
     0
 49
0.0
 74
     0
 49
-6.349999999999999
 74
     0
  0
LTYPE
  5
28
100
AcDbSymbolTableRecord
100
AcDbLinetypeTableRecord
  2
BORDER2
 70
     0
  3
Border (.5x) __.__.__.__.__.__.
 72
    65
 73
     6
 40
0.875
 49
0.25
 74
     0
 49
-0.125
 74
     0
 49
0.25
 74
     0
 49
-0.125
 74
     0
 49
0.0
 74
     0
 49
-0.125
 74
     0
  0
LTYPE
  5
29
100
AcDbSymbolTableRecord
100
AcDbLinetypeTableRecord
  2
BORDERX2
 70
     0
  3
Border (2x) ____  ____  .  ____
 72
    65
 73
     6
 40
3.5
 49
1.0
 74
     0
 49
-0.5
 74
     0
 49
1.0
 74
     0
 49
-0.5
 74
     0
 49
0.0
 74
     0
 49
-0.5
 74
     0
  0
LTYPE
  5
2A
100
AcDbSymbolTableRecord
100
AcDbLinetypeTableRecord
  2
CENTER2
 70
     0
  3
Center (.5x) ___ _ ___ _ ___ _ 
 72
    65
 73
     4
 40
1.125
 49
0.75
 74
     0
 49
-0.125
 74
     0
 49
0.125
 74
     0
 49
-0.125
 74
     0
  0
LTYPE
  5
2B
100
AcDbSymbolTableRecord
100
AcDbLinetypeTableRecord
  2
CENTERX2
 70
     0
  3
Center (2x) ________  __  _____
 72
    65
 73
     4
 40
4.0
 49
2.5
 74
     0
 49
-0.5
 74
     0
 49
0.5
 74
     0
 49
-0.5
 74
     0
  0
LTYPE
  5
2C
100
AcDbSymbolTableRecord
100
AcDbLinetypeTableRecord
  2
DASHDOT2
 70
     0
  3
Dash dot (.5x) _._._._._._._._.
 72
    65
 73
     4
 40
0.5
 49
0.25
 74
     0
 49
-0.125
 74
     0
 49
0.0
 74
     0
 49
-0.125
 74
     0
  0
LTYPE
  5
2D
100
AcDbSymbolTableRecord
100
AcDbLinetypeTableRecord
  2
DASHDOTX2
 70
     0
  3
Dash dot (2x) ____  .  ____  . 
 72
    65
 73
     4
 40
2.0
 49
1.0
 74
     0
 49
-0.5
 74
     0
 49
0.0
 74
     0
 49
-0.5
 74
     0
  0
LTYPE
  5
2E
100
AcDbSymbolTableRecord
100
AcDbLinetypeTableRecord
  2
DASHED2
 70
     0
  3
Dashed (.5x) _ _ _ _ _ _ _ _ _ 
 72
    65
 73
     2
 40
0.375
 49
0.25
 74
     0
 49
-0.125
 74
     0
  0
LTYPE
  5
2F
100
AcDbSymbolTableRecord
100
AcDbLinetypeTableRecord
  2
DASHEDX2
 70
     0
  3
Dashed (2x) ____  ____  ____  _
 72
    65
 73
     2
 40
1.5
 49
1.0
 74
     0
 49
-0.5
 74
     0
  0
LTYPE
  5
30
100
AcDbSymbolTableRecord
100
AcDbLinetypeTableRecord
  2
DIVIDE2
 70
     0
  3
Divide (.5x) __..__..__..__..__
 72
    65
 73
     6
 40
0.625
 49
0.25
 74
     0
 49
-0.125
 74
     0
 49
0.0
 74
     0
 49
-0.125
 74
     0
 49
0.0
 74
     0
 49
-0.125
 74
     0
  0
LTYPE
  5
31
100
AcDbSymbolTableRecord
100
AcDbLinetypeTableRecord
  2
DIVIDEX2
 70
     0
  3
Divide (2x) ________  .  .  ___
 72
    65
 73
     6
 40
2.5
 49
1.0
 74
     0
 49
-0.5
 74
     0
 49
0.0
 74
     0
 49
-0.5
 74
     0
 49
0.0
 74
     0
 49
-0.5
 74
     0
  0
LTYPE
  5
32
100
AcDbSymbolTableRecord
100
AcDbLinetypeTableRecord
  2
DOT2
 70
     0
  3
Dot (.5x) .....................
 72
    65
 73
     2
 40
0.125
 49
0.0
 74
     0
 49
-0.125
 74
     0
  0
LTYPE
  5
33
100
AcDbSymbolTableRecord
100
AcDbLinetypeTableRecord
  2
DOTX2
 70
     0
  3
Dot (2x) .  .  .  .  .  .  .  .
 72
    65
 73
     2
 40
0.5
 49
0.0
 74
     0
 49
-0.5
 74
     0
  0
LTYPE
  5
34
100
AcDbSymbolTableRecord
100
AcDbLinetypeTableRecord
  2
HIDDEN2
 70
     0
  3
Hidden (.5x) _ _ _ _ _ _ _ _ _ 
 72
    65
 73
     2
 40
0.1875
 49
0.125
 74
     0
 49
-0.0625
 74
     0
  0
LTYPE
  5
35
100
AcDbSymbolTableRecord
100
AcDbLinetypeTableRecord
  2
HIDDENX2
 70
     0
  3
Hidden (2x) ____ ____ ____ ____
 72
    65
 73
     2
 40
0.75
 49
0.5
 74
     0
 49
-0.25
 74
     0
  0
LTYPE
  5
36
100
AcDbSymbolTableRecord
100
AcDbLinetypeTableRecord
  2
PHANTOM2
 70
     0
  3
Phantom (.5x) ___ _ _ ___ _ _ _
 72
    65
 73
     6
 40
1.25
 49
0.625
 74
     0
 49
-0.125
 74
     0
 49
0.125
 74
     0
 49
-0.125
 74
     0
 49
0.125
 74
     0
 49
-0.125
 74
     0
  0
LTYPE
  5
37
100
AcDbSymbolTableRecord
100
AcDbLinetypeTableRecord
  2
PHANTOMX2
 70
     0
  3
Phantom (2x) ____________    __
 72
    65
 73
     6
 40
5.0
 49
2.5
 74
     0
 49
-0.5
 74
     0
 49
0.5
 74
     0
 49
-0.5
 74
     0
 49
0.5
 74
     0
 49
-0.5
 74
     0
  0
LTYPE
  5
38
100
AcDbSymbolTableRecord
100
AcDbLinetypeTableRecord
  2
DOTS
 70
     0
  3
Dots - - - - - - - - - - - - - 
 72
    65
 73
     2
 40
0.1
 49
0.05
 74
     0
 49
-0.05
 74
     0
  0
LTYPE
  5
39
100
AcDbSymbolTableRecord
100
AcDbLinetypeTableRecord
  2
ACAD_ISO02W100
 70
     0
  3
__ __ __ __ __ __ __ __ __ __ _
 72
    65
 73
     2
 40
15.0
 49
12.0
 74
     0
 49
-3.0
 74
     0
  0
LTYPE
  5
3A
100
AcDbSymbolTableRecord
100
AcDbLinetypeTableRecord
  2
ACAD_ISO03W100
 70
     0
  3
__    __    __    __    __    _
 72
    65
 73
     2
 40
30.0
 49
12.0
 74
     0
 49
-18.0
 74
     0
  0
LTYPE
  5
3B
100
AcDbSymbolTableRecord
100
AcDbLinetypeTableRecord
  2
ACAD_ISO04W100
 70
     0
  3
____ . ____ . ____ . ____ . ___
 72
    65
 73
     4
 40
30.5
 49
24.0
 74
     0
 49
-3.0
 74
     0
 49
0.5
 74
     0
 49
-3.0
 74
     0
  0
LTYPE
  5
3C
100
AcDbSymbolTableRecord
100
AcDbLinetypeTableRecord
  2
ACAD_ISO05W100
 70
     0
  3
____ .. ____ .. ____ .. ____ ..
 72
    65
 73
     6
 40
34.0
 49
24.0
 74
     0
 49
-3.0
 74
     0
 49
0.5
 74
     0
 49
-3.0
 74
     0
 49
0.5
 74
     0
 49
-3.0
 74
     0
  0
LTYPE
  5
3D
100
AcDbSymbolTableRecord
100
AcDbLinetypeTableRecord
  2
ACAD_ISO06W100
 70
     0
  3
____ ... ____ ... ____ ... ____
 72
    65
 73
     6
 40
34.0
 49
24.0
 74
     0
 49
-3.0
 74
     0
 49
0.5
 74
     0
 49
-3.0
 74
     0
 49
0.5
 74
     0
 49
-3.0
 74
     0
  0
LTYPE
  5
3E
100
AcDbSymbolTableRecord
100
AcDbLinetypeTableRecord
  2
ACAD_ISO07W100
 70
     0
  3
. . . . . . . . . . . . . . . .
 72
    65
 73
     2
 40
3.5
 49
0.5
 74
     0
 49
-3.0
 74
     0
  0
LTYPE
  5
3F
100
AcDbSymbolTableRecord
100
AcDbLinetypeTableRecord
  2
ACAD_ISO08W100
 70
     0
  3
____ __ ____ __ ____ __ ____ __
 72
    65
 73
     4
 40
36.0
 49
24.0
 74
     0
 49
-3.0
 74
     0
 49
6.0
 74
     0
 49
-3.0
 74
     0
  0
LTYPE
  5
40
100
AcDbSymbolTableRecord
100
AcDbLinetypeTableRecord
  2
ACAD_ISO09W100
 70
     0
  3
____ __ __ ____ __ __ ____ __ _
 72
    65
 73
     6
 40
45.0
 49
24.0
 74
     0
 49
-3.0
 74
     0
 49
6.0
 74
     0
 49
-3.0
 74
     0
 49
6.0
 74
     0
 49
-3.0
 74
     0
  0
LTYPE
  5
41
100
AcDbSymbolTableRecord
100
AcDbLinetypeTableRecord
  2
ACAD_ISO10W100
 70
     0
  3
__ . __ . __ . __ . __ . __ . _
 72
    65
 73
     4
 40
18.5
 49
12.0
 74
     0
 49
-3.0
 74
     0
 49
0.5
 74
     0
 49
-3.0
 74
     0
  0
LTYPE
  5
42
100
AcDbSymbolTableRecord
100
AcDbLinetypeTableRecord
  2
ACAD_ISO11W100
 70
     0
  3
__ __ . __ __ . __ __ . __ __ .
 72
    65
 73
     6
 40
33.5
 49
12.0
 74
     0
 49
-3.0
 74
     0
 49
12.0
 74
     0
 49
-3.0
 74
     0
 49
0.5
 74
     0
 49
-3.0
 74
     0
  0
LTYPE
  5
43
100
AcDbSymbolTableRecord
100
AcDbLinetypeTableRecord
  2
ACAD_ISO12W100
 70
     0
  3
__ . . __ . . __ . . __ . . __ 
 72
    65
 73
     6
 40
22.0
 49
12.0
 74
     0
 49
-3.0
 74
     0
 49
0.5
 74
     0
 49
-3.0
 74
     0
 49
0.5
 74
     0
 49
-3.0
 74
     0
  0
LTYPE
  5
44
100
AcDbSymbolTableRecord
100
AcDbLinetypeTableRecord
  2
ACAD_ISO13W100
 70
     0
  3
__ __ . . __ __ . . __ __ . . _
 72
    65
 73
     6
 40
33.5
 49
12.0
 74
     0
 49
-3.0
 74
     0
 49
12.0
 74
     0
 49
-3.0
 74
     0
 49
0.5
 74
     0
 49
-3.0
 74
     0
  0
LTYPE
  5
45
100
AcDbSymbolTableRecord
100
AcDbLinetypeTableRecord
  2
ACAD_ISO14W100
 70
     0
  3
__ . . . __ . . . __ . . . __ .
 72
    65
 73
     6
 40
22.0
 49
12.0
 74
     0
 49
-3.0
 74
     0
 49
0.5
 74
     0
 49
-3.0
 74
     0
 49
0.5
 74
     0
 49
-3.0
 74
     0
  0
LTYPE
  5
46
100
AcDbSymbolTableRecord
100
AcDbLinetypeTableRecord
  2
ACAD_ISO15W100
 70
     0
  3
__ __ . . . __ __ . . . __ __ .
 72
    65
 73
     6
 40
33.5
 49
12.0
 74
     0
 49
-3.0
 74
     0
 49
12.0
 74
     0
 49
-3.0
 74
     0
 49
0.5
 74
     0
 49
-3.0
 74
     0
  0
ENDTAB
  0
TABLE
  2
LAYER
  5
2
100
AcDbSymbolTable
 70
     4
  0
LAYER
  5
E
100
AcDbSymbolTableRecord
100
AcDbLayerTableRecord
  2
0
 70
     0
 62
     7
  6
CONTINUOUS
  0
LAYER
  5
47
100
AcDbSymbolTableRecord
100
AcDbLayerTableRecord
  2
AXES
 70
     0
 62
     1
  6
CONTINUOUS
  0
LAYER
  5
48
100
AcDbSymbolTableRecord
100
AcDbLayerTableRecord
  2
COMMENTS
 70
     0
 62
    94
  6
CONTINUOUS
  0
LAYER
  5
49
100
AcDbSymbolTableRecord
100
AcDbLayerTableRecord
  2
SIDEFLAP
 70
     0
 62
     7
  6
CONTINUOUS
  0
ENDTAB
  0
TABLE
  2
STYLE
  5
3
100
AcDbSymbolTable
 70
     5
  0
STYLE
  5
F
100
AcDbSymbolTableRecord
100
AcDbTextStyleTableRecord
  2
STANDARD
 70
     0
 40
0.0
 41
1.0
 50
0.0
 71
     0
 42
76.88032662602641
  3
txt
  4

  0
STYLE
  5
4A
100
AcDbSymbolTableRecord
100
AcDbTextStyleTableRecord
  2
ITALIC
 70
     0
 40
0.0
 41
1.0
 50
0.0
 71
     0
 42
76.88032662602641
  3
ITALIC
  4

  0
STYLE
  5
4B
100
AcDbSymbolTableRecord
100
AcDbTextStyleTableRecord
  2
SIMPLEX
 70
     0
 40
0.0
 41
1.0
 50
0.0
 71
     0
 42
76.88032662602641
  3
SIMPLEX
  4

  0
STYLE
  5
4C
100
AcDbSymbolTableRecord
100
AcDbTextStyleTableRecord
  2
COMPLEX
 70
     0
 40
0.0
 41
1.0
 50
0.0
 71
     0
 42
76.88032662602641
  3
COMPLEX
  4

  0
STYLE
  5
6D
100
AcDbSymbolTableRecord
100
AcDbTextStyleTableRecord
  2
ARIAL
 70
     0
 40
0.0
 41
1.0
 50
0.0
 71
     0
 42
76.88032662602641
  3
ARIAL.TTF
  4

1001
ACAD
1000
Arial
1071
        0
  0
ENDTAB
  0
TABLE
  2
VIEW
  5
6
100
AcDbSymbolTable
 70
     0
  0
ENDTAB
  0
TABLE
  2
UCS
  5
7
100
AcDbSymbolTable
 70
     0
  0
ENDTAB
  0
TABLE
  2
APPID
  5
9
100
AcDbSymbolTable
 70
     1
  0
APPID
  5
10
100
AcDbSymbolTableRecord
100
AcDbRegAppTableRecord
  2
ACAD
 70
     0
  0
ENDTAB
  0
TABLE
  2
DIMSTYLE
  5
A
100
AcDbSymbolTable
 70
     1
  0
DIMSTYLE
105
1D
100
AcDbSymbolTableRecord
100
AcDbDimStyleTableRecord
  2
STANDARD
 70
     0
  3

  4

  5

  6

  7

 40
1.0
 41
0.18
 42
0.0625
 43
0.38
 44
0.18
 45
0.0
 46
0.0
 47
0.0
 48
0.0
140
0.18
141
0.09
142
0.0
143
25.4
144
1.0
145
0.0
146
1.0
147
0.09
 71
     0
 72
     0
 73
     1
 74
     1
 75
     0
 76
     0
 77
     0
 78
     0
170
     0
171
     2
172
     0
173
     0
174
     0
175
     0
176
     0
177
     0
178
     0
270
     2
271
     4
272
     4
273
     2
274
     2
340
F
275
     0
280
     0
281
     0
282
     0
283
     1
284
     0
285
     0
286
     0
287
     3
288
     0
  0
ENDTAB
  0
TABLE
  2
BLOCK_RECORD
  5
1
100
AcDbSymbolTable
 70
     0
  0
BLOCK_RECORD
  5
18
100
AcDbSymbolTableRecord
100
AcDbBlockTableRecord
  2
*MODEL_SPACE
  0
BLOCK_RECORD
  5
15
100
AcDbSymbolTableRecord
100
AcDbBlockTableRecord
  2
*PAPER_SPACE
  0
ENDTAB
  0
ENDSEC
  0
SECTION
  2
BLOCKS
  0
BLOCK
  5
19
100
AcDbEntity
  8
0
100
AcDbBlockBegin
  2
*MODEL_SPACE
 70
     0
 10
0.0
 20
0.0
 30
0.0
  3
*MODEL_SPACE
  1

  0
ENDBLK
  5
1A
100
AcDbEntity
  8
0
100
AcDbBlockEnd
  0
BLOCK
  5
16
100
AcDbEntity
 67
     1
  8
0
100
AcDbBlockBegin
  2
*PAPER_SPACE
 70
     0
 10
0.0
 20
0.0
 30
0.0
  3
*PAPER_SPACE
  1

  0
ENDBLK
  5
17
100
AcDbEntity
 67
     1
  8
0
100
AcDbBlockEnd
  0
ENDSEC
  0
SECTION
  2
ENTITIES
  0
LINE
  5
4D
100
AcDbEntity
  8
SIDEFLAP
  6
CONTINUOUS
100
AcDbLine
 10
10804.84327098052
 20
1689.373488689312
 30
0.0
 11
10804.84327098052
 21
2469.373488689312
 31
0.0
  0
LINE
  5
4E
100
AcDbEntity
  8
SIDEFLAP
  6
CONTINUOUS
100
AcDbLine
 10
11009.84327098052
 20
1689.373488689312
 30
0.0
 11
11009.84327098052
 21
2469.373488689312
 31
0.0
  0
LINE
  5
4F
100
AcDbEntity
  8
SIDEFLAP
  6
CONTINUOUS
100
AcDbLine
 10
11009.84327098052
 20
2469.373488689312
 30
0.0
 11
10804.84327098052
 21
2469.373488689312
 31
0.0
  0
LINE
  5
50
100
AcDbEntity
  8
SIDEFLAP
  6
CONTINUOUS
100
AcDbLine
 10
10804.84327098052
 20
1689.373488689312
 30
0.0
 11
11009.84327098052
 21
1689.373488689312
 31
0.0
  0
LINE
  5
51
100
AcDbEntity
  8
SIDEFLAP
  6
CONTINUOUS
100
AcDbLine
 10
11150.97911694692
 20
1689.373488689312
 30
0.0
 11
11150.97911694692
 21
2469.373488689312
 31
0.0
  0
LINE
  5
52
100
AcDbEntity
  8
SIDEFLAP
  6
CONTINUOUS
100
AcDbLine
 10
11355.97911694692
 20
1689.373488689312
 30
0.0
 11
11355.97911694692
 21
2469.373488689312
 31
0.0
  0
LINE
  5
53
100
AcDbEntity
  8
SIDEFLAP
  6
CONTINUOUS
100
AcDbLine
 10
11355.97911694692
 20
2469.373488689312
 30
0.0
 11
11150.97911694692
 21
2469.373488689312
 31
0.0
  0
LINE
  5
54
100
AcDbEntity
  8
SIDEFLAP
  6
CONTINUOUS
100
AcDbLine
 10
11150.97911694692
 20
1689.373488689312
 30
0.0
 11
11355.97911694692
 21
1689.373488689312
 31
0.0
  0
LINE
  5
55
100
AcDbEntity
  8
SIDEFLAP
  6
CONTINUOUS
100
AcDbLine
 10
10979.84327098052
 20
1719.3734886893
 30
0.0
 11
10979.84327098052
 21
2439.373488689312
 31
0.0
  0
LINE
  5
56
100
AcDbEntity
  8
SIDEFLAP
  6
CONTINUOUS
100
AcDbLine
 10
10834.84327098052
 20
1719.373488689301
 30
0.0
 11
10834.84327098052
 21
2439.373488689312
 31
0.0
  0
LINE
  5
57
100
AcDbEntity
  8
SIDEFLAP
  6
CONTINUOUS
100
AcDbLine
 10
10979.84327098052
 20
2439.373488689312
 30
0.0
 11
10834.84327098052
 21
2439.373488689312
 31
0.0
  0
LINE
  5
58
100
AcDbEntity
  8
SIDEFLAP
  6
CONTINUOUS
100
AcDbLine
 10
10834.84327098052
 20
1719.373488689301
 30
0.0
 11
10979.84327098052
 21
1719.37348868931
 31
0.0
  0
LINE
  5
59
100
AcDbEntity
  8
SIDEFLAP
  6
CONTINUOUS
100
AcDbLine
 10
10979.84327098052
 20
2439.373488689312
 30
0.0
 11
11009.84327098052
 21
2469.37348868931
 31
0.0
  0
LINE
  5
5A
100
AcDbEntity
  8
SIDEFLAP
  6
CONTINUOUS
100
AcDbLine
 10
10834.84327098052
 20
2439.373488689312
 30
0.0
 11
10804.84327098056
 21
2469.37348868931
 31
0.0
  0
LINE
  5
5B
100
AcDbEntity
  8
SIDEFLAP
  6
CONTINUOUS
100
AcDbLine
 10
10834.84327098052
 20
1719.373488689301
 30
0.0
 11
10804.84327098048
 21
1689.373488689307
 31
0.0
  0
LINE
  5
5C
100
AcDbEntity
  8
SIDEFLAP
  6
CONTINUOUS
100
AcDbLine
 10
10979.84327098052
 20
1719.3734886893
 30
0.0
 11
11009.84327098057
 21
1689.373488689307
 31
0.0
  0
CIRCLE
  5
5D
100
AcDbEntity
  8
SIDEFLAP
  6
CONTINUOUS
100
AcDbCircle
 10
10824.84327098052
 20
1729.373488689307
 30
0.0
 40
4.999999999999999
  0
CIRCLE
  5
5E
100
AcDbEntity
  8
SIDEFLAP
  6
CONTINUOUS
100
AcDbCircle
 10
10824.84327098052
 20
1829.373488689307
 30
0.0
 40
4.999999999999999
  0
CIRCLE
  5
5F
100
AcDbEntity
  8
SIDEFLAP
  6
CONTINUOUS
100
AcDbCircle
 10
10824.84327098052
 20
1929.373488689307
 30
0.0
 40
4.999999999999999
  0
CIRCLE
  5
60
100
AcDbEntity
  8
SIDEFLAP
  6
CONTINUOUS
100
AcDbCircle
 10
10824.84327098052
 20
2029.373488689307
 30
0.0
 40
4.999999999999999
  0
CIRCLE
  5
61
100
AcDbEntity
  8
SIDEFLAP
  6
CONTINUOUS
100
AcDbCircle
 10
10824.84327098052
 20
2129.373488689307
 30
0.0
 40
4.999999999999999
  0
CIRCLE
  5
62
100
AcDbEntity
  8
SIDEFLAP
  6
CONTINUOUS
100
AcDbCircle
 10
10824.84327098052
 20
2229.373488689307
 30
0.0
 40
4.999999999999999
  0
CIRCLE
  5
63
100
AcDbEntity
  8
SIDEFLAP
  6
CONTINUOUS
100
AcDbCircle
 10
10824.84327098052
 20
2329.373488689307
 30
0.0
 40
4.999999999999999
  0
CIRCLE
  5
64
100
AcDbEntity
  8
SIDEFLAP
  6
CONTINUOUS
100
AcDbCircle
 10
10824.84327098052
 20
2429.373488689307
 30
0.0
 40
4.999999999999999
  0
CIRCLE
  5
65
100
AcDbEntity
  8
SIDEFLAP
  6
CONTINUOUS
100
AcDbCircle
 10
11335.97911694692
 20
2029.373488689307
 30
0.0
 40
3.5
  0
CIRCLE
  5
66
100
AcDbEntity
  8
SIDEFLAP
  6
CONTINUOUS
100
AcDbCircle
 10
11335.97911694692
 20
2129.373488689307
 30
0.0
 40
3.5
  0
CIRCLE
  5
67
100
AcDbEntity
  8
SIDEFLAP
  6
CONTINUOUS
100
AcDbCircle
 10
11335.97911694692
 20
2229.373488689307
 30
0.0
 40
3.5
  0
CIRCLE
  5
68
100
AcDbEntity
  8
SIDEFLAP
  6
CONTINUOUS
100
AcDbCircle
 10
11335.97911694692
 20
2329.373488689307
 30
0.0
 40
3.5
  0
CIRCLE
  5
69
100
AcDbEntity
  8
SIDEFLAP
  6
CONTINUOUS
100
AcDbCircle
 10
11335.97911694692
 20
2429.373488689307
 30
0.0
 40
3.5
  0
CIRCLE
  5
6A
100
AcDbEntity
  8
SIDEFLAP
  6
CONTINUOUS
100
AcDbCircle
 10
11335.97911694692
 20
1929.373488689307
 30
0.0
 40
3.5
  0
CIRCLE
  5
6B
100
AcDbEntity
  8
SIDEFLAP
  6
CONTINUOUS
100
AcDbCircle
 10
11335.97911694692
 20
1829.373488689307
 30
0.0
 40
3.5
  0
CIRCLE
  5
6C
100
AcDbEntity
  8
SIDEFLAP
  6
CONTINUOUS
100
AcDbCircle
 10
11335.97911694692
 20
1729.373488689307
 30
0.0
 40
3.5
  0
TEXT
  5
6E
100
AcDbEntity
  8
COMMENTS
  6
CONTINUOUS
100
AcDbText
 10
11389.90244039916
 20
2139.492459730593
 30
0.0
 40
15.37606532520528
  1
Outer edge
 50
270.0
 41
0.6000000000000001
  7
ARIAL
 11
11389.90244039916
 21
2139.492459730593
 31
0.0
100
AcDbText
 73
     1
  0
TEXT
  5
6F
100
AcDbEntity
  8
COMMENTS
  6
CONTINUOUS
100
AcDbText
 10
10842.88418382725
 20
1646.557929090939
 30
0.0
 40
15.37606532520528
  1
Front
 41
0.6000000000000001
  7
ARIAL
 11
10842.88418382725
 21
1646.557929090939
 31
0.0
100
AcDbText
 73
     1
  0
LINE
  5
70
100
AcDbEntity
  8
SIDEFLAP
  6
CONTINUOUS
100
AcDbLine
 10
10804.84327098052
 20
1588.93228338656
 30
0.0
 11
11009.84327098052
 21
1588.93228338656
 31
0.0
  0
LINE
  5
71
100
AcDbEntity
  8
SIDEFLAP
  6
CONTINUOUS
100
AcDbLine
 10
10804.84327098052
 20
1563.93228338656
 30
0.0
 11
11009.84327098052
 21
1563.93228338656
 31
0.0
  0
LINE
  5
72
100
AcDbEntity
  8
SIDEFLAP
  6
CONTINUOUS
100
AcDbLine
 10
11009.84327098052
 20
1563.93228338656
 30
0.0
 11
11009.84327098052
 21
1588.93228338656
 31
0.0
  0
LINE
  5
73
100
AcDbEntity
  8
SIDEFLAP
  6
CONTINUOUS
100
AcDbLine
 10
10804.84327098052
 20
1588.93228338656
 30
0.0
 11
10804.84327098052
 21
1563.93228338656
 31
0.0
  0
CIRCLE
  5
74
100
AcDbEntity
  8
SIDEFLAP
  6
CONTINUOUS
100
AcDbCircle
 10
10843.34327098052
 20
1709.373488689312
 30
0.0
 40
4.999999999999999
  0
CIRCLE
  5
75
100
AcDbEntity
  8
SIDEFLAP
  6
CONTINUOUS
100
AcDbCircle
 10
10971.34327098052
 20
1709.373488689312
 30
0.0
 40
4.999999999999999
  0
CIRCLE
  5
76
100
AcDbEntity
  8
SIDEFLAP
  6
CONTINUOUS
100
AcDbCircle
 10
10843.34327098052
 20
2449.373488689312
 30
0.0
 40
4.999999999999999
  0
CIRCLE
  5
77
100
AcDbEntity
  8
SIDEFLAP
  6
CONTINUOUS
100
AcDbCircle
 10
10971.34327098052
 20
2449.373488689312
 30
0.0
 40
4.999999999999999
  0
CIRCLE
  5
78
100
AcDbEntity
  8
SIDEFLAP
  6
CONTINUOUS
100
AcDbCircle
 10
11317.47911694692
 20
2449.373488689312
 30
0.0
 40
3.5
  0
CIRCLE
  5
79
100
AcDbEntity
  8
SIDEFLAP
  6
CONTINUOUS
100
AcDbCircle
 10
11189.47911694692
 20
2449.373488689312
 30
0.0
 40
3.5
  0
CIRCLE
  5
7A
100
AcDbEntity
  8
SIDEFLAP
  6
CONTINUOUS
100
AcDbCircle
 10
11189.47911694692
 20
1709.373488689311
 30
0.0
 40
3.5
  0
CIRCLE
  5
7B
100
AcDbEntity
  8
SIDEFLAP
  6
CONTINUOUS
100
AcDbCircle
 10
11317.47911694692
 20
1709.373488689311
 30
0.0
 40
3.5
  0
TEXT
  5
7C
100
AcDbEntity
  8
COMMENTS
  6
CONTINUOUS
100
AcDbText
 10
11546.56700188431
 20
2280.636903150351
 30
0.0
 40
23.06409798780792
  1
Front left flap
 41
0.6000000000000001
  7
ARIAL
 11
11546.56700188431
 21
2280.636903150351
 31
0.0
100
AcDbText
 73
     1
  0
TEXT
  5
7D
100
AcDbEntity
  8
COMMENTS
  6
CONTINUOUS
100
AcDbText
 10
11546.56700188431
 20
2246.040756168639
 30
-34.59614698171189
 40
23.06409798780792
  1
Standard pattern
 41
0.6000000000000001
  7
ARIAL
 11
11546.56700188431
 21
2246.040756168639
 31
-34.59614698171189
100
AcDbText
 73
     1
  0
TEXT
  5
7E
100
AcDbEntity
  8
COMMENTS
  6
CONTINUOUS
100
AcDbText
 10
11546.56700188431
 20
2211.444609186927
 30
-69.19229396342379
 40
23.06409798780792
  1
Unassembled
 41
0.6000000000000001
  7
ARIAL
 11
11546.56700188431
 21
2211.444609186927
 31
-69.19229396342379
100
AcDbText
 73
     1
  0
LINE
  5
7F
100
AcDbEntity
  8
SIDEFLAP
  6
CONTINUOUS
100
AcDbLine
 10
10806.84327098052
 20
1691.373488689344
 30
0.0
 11
10806.84327098052
 21
2467.373488689372
 31
0.0
  0
LINE
  5
80
100
AcDbEntity
  8
SIDEFLAP
  6
CONTINUOUS
100
AcDbLine
 10
11007.84327098052
 20
1691.373488689352
 30
0.0
 11
11007.84327098052
 21
2467.373488689299
 31
0.0
  0
LINE
  5
81
100
AcDbEntity
  8
SIDEFLAP
  6
CONTINUOUS
100
AcDbLine
 10
11007.84327098055
 20
2467.373488689334
 30
0.0
 11
10806.84327098058
 21
2467.373488689316
 31
0.0
  0
LINE
  5
82
100
AcDbEntity
  8
SIDEFLAP
  6
CONTINUOUS
100
AcDbLine
 10
10806.84327098049
 20
1691.373488689311
 30
0.0
 11
11007.84327098057
 21
1691.373488689307
 31
0.0
  0
LINE
  5
83
100
AcDbEntity
  8
SIDEFLAP
  6
CONTINUOUS
100
AcDbLine
 10
10804.84327098052
 20
1583.932283386561
 30
0.0
 11
11009.84327098052
 21
1583.932283386561
 31
0.0
  0
CIRCLE
  5
84
100
AcDbEntity
  8
SIDEFLAP
  6
CONTINUOUS
100
AcDbCircle
 10
10989.84327098052
 20
2266.373488689317
 30
0.0
 40
4.999999999999999
  0
CIRCLE
  5
85
100
AcDbEntity
  8
SIDEFLAP
  6
CONTINUOUS
100
AcDbCircle
 10
10989.84327098052
 20
2156.373488689317
 30
0.0
 40
4.999999999999999
  0
CIRCLE
  5
86
100
AcDbEntity
  8
SIDEFLAP
  6
CONTINUOUS
100
AcDbCircle
 10
10989.84327098052
 20
2046.373488689317
 30
0.0
 40
4.999999999999999
  0
CIRCLE
  5
87
100
AcDbEntity
  8
SIDEFLAP
  6
CONTINUOUS
100
AcDbCircle
 10
10989.84327098052
 20
1946.373488689317
 30
0.0
 40
4.999999999999999
  0
CIRCLE
  5
88
100
AcDbEntity
  8
SIDEFLAP
  6
CONTINUOUS
100
AcDbCircle
 10
10989.84327098052
 20
1836.373488689318
 30
0.0
 40
4.999999999999999
  0
CIRCLE
  5
89
100
AcDbEntity
  8
SIDEFLAP
  6
CONTINUOUS
100
AcDbCircle
 10
10989.84327098052
 20
1726.373488689318
 30
0.0
 40
4.999999999999999
  0
CIRCLE
  5
8A
100
AcDbEntity
  8
SIDEFLAP
  6
CONTINUOUS
100
AcDbCircle
 10
11170.97911694692
 20
1726.373488689318
 30
0.0
 40
4.999999999999999
  0
CIRCLE
  5
8B
100
AcDbEntity
  8
SIDEFLAP
  6
CONTINUOUS
100
AcDbCircle
 10
11170.97911694692
 20
1836.373488689318
 30
0.0
 40
4.999999999999999
  0
CIRCLE
  5
8C
100
AcDbEntity
  8
SIDEFLAP
  6
CONTINUOUS
100
AcDbCircle
 10
11170.97911694692
 20
1946.373488689317
 30
0.0
 40
4.999999999999999
  0
CIRCLE
  5
8D
100
AcDbEntity
  8
SIDEFLAP
  6
CONTINUOUS
100
AcDbCircle
 10
11170.97911694692
 20
2046.373488689317
 30
0.0
 40
4.999999999999999
  0
CIRCLE
  5
8E
100
AcDbEntity
  8
SIDEFLAP
  6
CONTINUOUS
100
AcDbCircle
 10
11170.97911694692
 20
2156.373488689317
 30
0.0
 40
4.999999999999999
  0
CIRCLE
  5
8F
100
AcDbEntity
  8
SIDEFLAP
  6
CONTINUOUS
100
AcDbCircle
 10
11170.97911694692
 20
2266.373488689317
 30
0.0
 40
4.999999999999999
  0
LINE
  5
90
100
AcDbEntity
  8
SIDEFLAP
  6
CONTINUOUS
100
AcDbLine
 10
10804.84327098052
 20
1491.526401046151
 30
0.0
 11
11009.84327098052
 21
1491.526401046151
 31
0.0
  0
LINE
  5
91
100
AcDbEntity
  8
SIDEFLAP
  6
CONTINUOUS
100
AcDbLine
 10
10804.84327098052
 20
1486.526401046151
 30
0.0
 11
11009.84327098051
 21
1486.526401046154
 31
0.0
  0
LINE
  5
92
100
AcDbEntity
  8
SIDEFLAP
  6
CONTINUOUS
100
AcDbLine
 10
10980.84327098049
 20
1484.526401046151
 30
0.0
 11
11005.84327098051
 21
1484.526401046151
 31
0.0
  0
LINE
  5
93
100
AcDbEntity
  8
SIDEFLAP
  6
CONTINUOUS
100
AcDbLine
 10
11007.84327098051
 20
1467.526401046153
 30
0.0
 11
11007.84327098052
 21
1482.526401046105
 31
0.0
  0
ARC
  5
94
100
AcDbEntity
  8
SIDEFLAP
  6
CONTINUOUS
100
AcDbCircle
 10
11008.84327098052
 20
1467.526401046154
 30
0.0
 40
1.000000000001216
100
AcDbArc
 50
180.0000000000827
 51
0.0
  0
ARC
  5
95
100
AcDbEntity
  8
SIDEFLAP
  6
CONTINUOUS
100
AcDbCircle
 10
10980.84327098049
 20
1485.526401046154
 30
0.0
 40
1.000000000003382
100
AcDbArc
 50
90.00000000000005
 51
270.0
  0
ARC
  5
96
100
AcDbEntity
  8
SIDEFLAP
  6
CONTINUOUS
100
AcDbCircle
 10
11005.84327098051
 20
1482.526401046105
 30
0.0
 40
1.999999999999999
100
AcDbArc
 50
0.0
 51
90.00000000000005
  0
ARC
  5
97
100
AcDbEntity
  8
SIDEFLAP
  6
CONTINUOUS
100
AcDbCircle
 10
11007.84327098054
 20
1484.526401046151
 30
0.0
 40
1.999999999999999
100
AcDbArc
 50
0.0000000001344484
 51
90.00000000000005
  0
LINE
  5
98
100
AcDbEntity
  8
SIDEFLAP
  6
CONTINUOUS
100
AcDbLine
 10
11009.84327098058
 20
1467.526401046153
 30
0.0
 11
11009.8432709805
 21
1484.52640104616
 31
0.0
  0
LINE
  5
99
100
AcDbEntity
  8
SIDEFLAP
  6
CONTINUOUS
100
AcDbLine
 10
11009.84327098028
 20
1486.526401046154
 30
0.0
 11
11009.84327098046
 21
1491.526401046151
 31
0.0
  0
LINE
  5
9A
100
AcDbEntity
  8
SIDEFLAP
  6
CONTINUOUS
100
AcDbLine
 10
10833.84327098055
 20
1484.526401046151
 30
0.0
 11
10808.84327098053
 21
1484.526401046151
 31
0.0
  0
LINE
  5
9B
100
AcDbEntity
  8
SIDEFLAP
  6
CONTINUOUS
100
AcDbLine
 10
10806.84327098053
 20
1467.526401046153
 30
0.0
 11
10806.84327098052
 21
1482.526401046105
 31
0.0
  0
ARC
  5
9C
100
AcDbEntity
  8
SIDEFLAP
  6
CONTINUOUS
100
AcDbCircle
 10
10805.84327098053
 20
1467.526401046154
 30
0.0
 40
1.000000000001216
100
AcDbArc
 50
180.0
 51
359.9999999999172
  0
ARC
  5
9D
100
AcDbEntity
  8
SIDEFLAP
  6
CONTINUOUS
100
AcDbCircle
 10
10833.84327098055
 20
1485.526401046154
 30
0.0
 40
1.000000000003382
100
AcDbArc
 50
269.9999999999999
 51
89.99999999999992
  0
ARC
  5
9E
100
AcDbEntity
  8
SIDEFLAP
  6
CONTINUOUS
100
AcDbCircle
 10
10808.84327098053
 20
1482.526401046105
 30
0.0
 40
1.999999999999999
100
AcDbArc
 50
89.99999999999994
 51
180.0
  0
ARC
  5
9F
100
AcDbEntity
  8
SIDEFLAP
  6
CONTINUOUS
100
AcDbCircle
 10
10806.8432709805
 20
1484.526401046151
 30
0.0
 40
1.999999999999999
100
AcDbArc
 50
89.99999999999994
 51
179.9999999998655
  0
LINE
  5
A0
100
AcDbEntity
  8
SIDEFLAP
  6
CONTINUOUS
100
AcDbLine
 10
10804.84327098046
 20
1467.526401046153
 30
0.0
 11
10804.84327098054
 21
1484.52640104616
 31
0.0
  0
LINE
  5
A1
100
AcDbEntity
  8
SIDEFLAP
  6
CONTINUOUS
100
AcDbLine
 10
10804.84327098076
 20
1486.526401046154
 30
0.0
 11
10804.84327098057
 21
1491.526401046151
 31
0.0
  0
LINE
  5
A2
100
AcDbEntity
  8
AXES
  6
CONTINUOUS
100
AcDbLine
 10
10949.84327098052
 20
2029.680016199263
 30
0.0
 11
10949.84327098052
 21
1458.433656358756
 31
0.0
  0
LINE
  5
A3
100
AcDbEntity
  8
SIDEFLAP
  6
CONTINUOUS
100
AcDbLine
 10
10939.45096613509
 20
1480.52640104624
 30
0.0
 11
10960.2355758258
 21
1480.526401046051
 31
0.0
  0
ARC
  5
A4
100
AcDbEntity
  8
SIDEFLAP
  6
CONTINUOUS
100
AcDbCircle
 10
10824.84327098052
 20
1485.651401046063
 30
0.0
 40
5.124999999982076
100
AcDbArc
 50
192.6803834909907
 51
347.3196165090128
  0
LINE
  5
A5
100
AcDbEntity
  8
AXES
  6
CONTINUOUS
100
AcDbLine
 10
10989.84327098052
 20
2301.372954206186
 30
0.0
 11
10989.84327098052
 21
1448.300478058189
 31
0.0
  0
LINE
  5
A6
100
AcDbEntity
  8
AXES
  6
CONTINUOUS
100
AcDbLine
 10
10824.84327098052
 20
2441.452108193067
 30
0.0
 11
10824.84327098052
 21
1456.757657336246
 31
0.0
  0
LINE
  5
A7
100
AcDbEntity
  8
SIDEFLAP
  6
CONTINUOUS
100
AcDbLine
 10
11040.29507586005
 20
1509.244732430887
 30
0.0
 11
11040.29507586007
 21
1510.244732430926
 31
0.0
  0
LINE
  5
A8
100
AcDbEntity
  8
COMMENTS
  6
CONTINUOUS
100
AcDbLine
 10
10766.61022614838
 20
1973.077461910402
 30
0.0
 11
11062.2696852903
 21
1973.077461910402
 31
0.0
  0
TEXT
  5
A9
100
AcDbEntity
  8
COMMENTS
  6
CONTINUOUS
100
AcDbText
 10
11037.16705343975
 20
1981.943582801917
 30
0.0
 40
38.44016331301321
  1
A
 41
0.6000000000000001
  7
ARIAL
 11
11037.16705343975
 21
1981.943582801917
 31
0.0
100
AcDbText
 73
     1
  0
TEXT
  5
AA
100
AcDbEntity
  8
COMMENTS
  6
CONTINUOUS
100
AcDbText
 10
10745.57630245117
 20
1981.943582801917
 30
0.0
 40
38.44016331301321
  1
A
 41
0.6000000000000001
  7
ARIAL
 11
10745.57630245117
 21
1981.943582801917
 31
0.0
100
AcDbText
 73
     1
  0
TEXT
  5
AB
100
AcDbEntity
  8
COMMENTS
  6
CONTINUOUS
100
AcDbText
 10
11041.23576159308
 20
1463.861411278015
 30
0.0
 40
23.06409798780792
  1
Section A-A
 41
0.6000000000000001
  7
ARIAL
 11
11041.23576159308
 21
1463.861411278015
 31
0.0
100
AcDbText
 73
     1
  0
LINE
  5
AC
100
AcDbEntity
  8
SIDEFLAP
  6
CONTINUOUS
100
AcDbLine
 10
10994.84327098052
 20
1491.526401046151
 30
0.0
 11
10994.84327098049
 21
1484.526401046139
 31
0.0
  0
LINE
  5
AD
100
AcDbEntity
  8
SIDEFLAP
  6
CONTINUOUS
100
AcDbLine
 10
10984.84327098052
 20
1491.526401046151
 30
0.0
 11
10984.84327098051
 21
1484.526401046139
 31
0.0
  0
CIRCLE
  5
AE
100
AcDbEntity
  8
SIDEFLAP
  6
CONTINUOUS
100
AcDbCircle
 10
11210.97911694692
 20
1996.373488689317
 30
0.0
 40
4.999999999999999
  0
LINE
  5
AF
100
AcDbEntity
  8
SIDEFLAP
  6
CONTINUOUS
100
AcDbLine
 10
10954.84327098052
 20
1511.526401046148
 30
0.0
 11
10954.84327098054
 21
1491.526401046151
 31
0.0
  0
LINE
  5
B0
100
AcDbEntity
  8
SIDEFLAP
  6
CONTINUOUS
100
AcDbLine
 10
10944.84327098052
 20
1511.526401046148
 30
0.0
 11
10944.84327098054
 21
1491.526401046151
 31
0.0
  0
LINE
  5
B1
100
AcDbEntity
  8
SIDEFLAP
  6
CONTINUOUS
100
AcDbLine
 10
10944.84327098054
 20
1511.526401046148
 30
0.0
 11
10954.84327098054
 21
1511.52640104613
 31
0.0
  0
LWPOLYLINE
  5
B2
100
AcDbEntity
  8
SIDEFLAP
  6
CONTINUOUS
100
AcDbPolyline
 90
        6
 70
     1
 43
0.0
 10
10952.53299739702
 20
2006.41168433417
 10
10942.49480175217
 20
2003.721957917665
 10
10939.80507533567
 20
1993.683762272813
 10
10947.15354456402
 20
1986.335293044464
 10
10957.19174020887
 20
1989.025019460967
 10
10959.88146662538
 20
1999.063215105821
  0
LINE
  5
B3
100
AcDbEntity
  8
SIDEFLAP
  6
CONTINUOUS
100
AcDbLine
 10
10960.2355758258
 20
1486.526401046154
 30
0.0
 11
10960.23557582593
 21
1480.526401046051
 31
0.0
  0
LINE
  5
B4
100
AcDbEntity
  8
SIDEFLAP
  6
CONTINUOUS
100
AcDbLine
 10
10955.03942340332
 20
1486.526401046154
 30
0.0
 11
10955.03942340323
 21
1480.526401046154
 31
0.0
  0
LINE
  5
B5
100
AcDbEntity
  8
SIDEFLAP
  6
CONTINUOUS
100
AcDbLine
 10
10939.45096613525
 20
1486.526401046154
 30
0.0
 11
10939.45096613511
 21
1480.526401046051
 31
0.0
  0
LINE
  5
B6
100
AcDbEntity
  8
SIDEFLAP
  6
CONTINUOUS
100
AcDbLine
 10
10944.64711855772
 20
1486.526401046154
 30
0.0
 11
10944.64711855781
 21
1480.526401046154
 31
0.0
  0
TEXT
  5
B7
100
AcDbEntity
  8
COMMENTS
100
AcDbText
 10
11498.44338294467
 20
1545.502598119551
 30
0.0
 40
15.37606532520528
  1
Drg version 1.0 / 15 Nov 2013
 41
0.6000000000000001
  7
ARIAL
 11
11498.44338294467
 21
1545.502598119551
 31
0.0
100
AcDbText
 73
     1
  0
ENDSEC
  0
SECTION
  2
OBJECTS
  0
DICTIONARY
  5
C
100
AcDbDictionary
  3
ACAD_GROUP
350
D
  3
ACAD_MLINESTYLE
350
1B
  3
ACDBVARIABLEDICTIONARY
350
1E
  0
DICTIONARY
  5
D
102
{ACAD_REACTORS
330
C
102
}
100
AcDbDictionary
  0
DICTIONARY
  5
1B
102
{ACAD_REACTORS
330
C
102
}
100
AcDbDictionary
  3
STANDARD
350
1C
  0
DICTIONARY
  5
1E
102
{ACAD_REACTORS
330
C
102
}
100
AcDbDictionary
  3
DIMADEC
350
1F
  0
MLINESTYLE
  5
1C
102
{ACAD_REACTORS
330
1B
102
}
100
AcDbMlineStyle
  2
STANDARD
 70
     0
  3

 62
   256
 51
90.0
 52
90.0
 71
     2
 49
0.5
 62
   256
  6
BYLAYER
 49
-0.5
 62
   256
  6
BYLAYER
  0
DICTIONARYVAR
  5
1F
102
{ACAD_REACTORS
330
1E
102
}
100
DictionaryVariables
280
     0
  1
-1
  0
ENDSEC
  0
EOF
