  0
SECTION
  2
HEADER
  9
$ACADVER
  1
AC1014
  9
$ACADMAINTVER
 70
     5
  9
$DWGCODEPAGE
  3
ANSI_1252
  9
$INSBASE
 10
0.0
 20
0.0
 30
0.0
  9
$EXTMIN
 10
1.000000000000000E+20
 20
1.000000000000000E+20
 30
1.000000000000000E+20
  9
$EXTMAX
 10
-1.000000000000000E+20
 20
-1.000000000000000E+20
 30
-1.000000000000000E+20
  9
$LIMMIN
 10
0.0
 20
0.0
  9
$LIMMAX
 10
12.0
 20
9.0
  9
$ORTHOMODE
 70
     0
  9
$REGENMODE
 70
     1
  9
$FILLMODE
 70
     1
  9
$QTEXTMODE
 70
     0
  9
$MIRRTEXT
 70
     1
  9
$DRAGMODE
 70
     2
  9
$LTSCALE
 40
1.0
  9
$OSMODE
 70
     0
  9
$ATTMODE
 70
     0
  9
$TEXTSIZE
 40
76.88032662602641
  9
$TRACEWID
 40
0.05
  9
$TEXTSTYLE
  7
STANDARD
  9
$CLAYER
  8
0
  9
$CELTYPE
  6
BYLAYER
  9
$CECOLOR
 62
   256
  9
$CELTSCALE
 40
1.0
  9
$DELOBJ
 70
     1
  9
$DISPSILH
 70
     0
  9
$DIMSCALE
 40
1.0
  9
$DIMASZ
 40
0.18
  9
$DIMEXO
 40
0.0625
  9
$DIMDLI
 40
0.38
  9
$DIMRND
 40
0.0
  9
$DIMDLE
 40
0.0
  9
$DIMEXE
 40
0.18
  9
$DIMTP
 40
0.0
  9
$DIMTM
 40
0.0
  9
$DIMTXT
 40
0.1513392256417843
  9
$DIMCEN
 40
0.09
  9
$DIMTSZ
 40
0.0
  9
$DIMTOL
 70
     0
  9
$DIMLIM
 70
     0
  9
$DIMTIH
 70
     1
  9
$DIMTOH
 70
     1
  9
$DIMSE1
 70
     0
  9
$DIMSE2
 70
     0
  9
$DIMTAD
 70
     0
  9
$DIMZIN
 70
     0
  9
$DIMBLK
  1

  9
$DIMASO
 70
     1
  9
$DIMSHO
 70
     1
  9
$DIMPOST
  1

  9
$DIMAPOST
  1

  9
$DIMALT
 70
     0
  9
$DIMALTD
 70
     2
  9
$DIMALTF
 40
25.4
  9
$DIMLFAC
 40
1.0
  9
$DIMTOFL
 70
     0
  9
$DIMTVP
 40
0.0
  9
$DIMTIX
 70
     0
  9
$DIMSOXD
 70
     0
  9
$DIMSAH
 70
     0
  9
$DIMBLK1
  1

  9
$DIMBLK2
  1

  9
$DIMSTYLE
  2
STANDARD
  9
$DIMCLRD
 70
     0
  9
$DIMCLRE
 70
     0
  9
$DIMCLRT
 70
     0
  9
$DIMTFAC
 40
1.0
  9
$DIMGAP
 40
0.09
  9
$DIMJUST
 70
     0
  9
$DIMSD1
 70
     0
  9
$DIMSD2
 70
     0
  9
$DIMTOLJ
 70
     1
  9
$DIMTZIN
 70
     0
  9
$DIMALTZ
 70
     0
  9
$DIMALTTZ
 70
     0
  9
$DIMFIT
 70
     3
  9
$DIMUPT
 70
     0
  9
$DIMUNIT
 70
     4
  9
$DIMDEC
 70
    -1
  9
$DIMTDEC
 70
     4
  9
$DIMALTU
 70
     2
  9
$DIMALTTD
 70
     2
  9
$DIMTXSTY
  7
STANDARD
  9
$DIMAUNIT
 70
     1
  9
$LUNITS
 70
     2
  9
$LUPREC
 70
     0
  9
$SKETCHINC
 40
0.1
  9
$FILLETRAD
 40
5.5
  9
$AUNITS
 70
     0
  9
$AUPREC
 70
     2
  9
$MENU
  1
.
  9
$ELEVATION
 40
0.0
  9
$PELEVATION
 40
0.0
  9
$THICKNESS
 40
0.0
  9
$LIMCHECK
 70
     0
  9
$BLIPMODE
 70
     0
  9
$CHAMFERA
 40
5.0
  9
$CHAMFERB
 40
5.0
  9
$CHAMFERC
 40
0.0
  9
$CHAMFERD
 40
0.0
  9
$SKPOLY
 70
     0
  9
$TDCREATE
 40
0.0000000000
  9
$TDUPDATE
 40
0.0000000000
  9
$TDINDWG
 40
0.0000000000
  9
$TDUSRTIMER
 40
0.0000000000
  9
$USRTIMER
 70
     1
  9
$ANGBASE
 50
0.0
  9
$ANGDIR
 70
     0
  9
$PDMODE
 70
     0
  9
$PDSIZE
 40
0.0
  9
$PLINEWID
 40
0.0
  9
$COORDS
 70
     1
  9
$SPLFRAME
 70
     0
  9
$SPLINETYPE
 70
     6
  9
$SPLINESEGS
 70
     8
  9
$ATTDIA
 70
     0
  9
$ATTREQ
 70
     1
  9
$HANDLING
 70
     1
  9
$HANDSEED
  5
184
  9
$SURFTAB1
 70
     6
  9
$SURFTAB2
 70
     6
  9
$SURFTYPE
 70
     6
  9
$SURFU
 70
     6
  9
$SURFV
 70
     6
  9
$UCSNAME
  2

  9
$UCSORG
 10
0.0
 20
0.0
 30
0.0
  9
$UCSXDIR
 10
1.0
 20
0.0
 30
0.0
  9
$UCSYDIR
 10
0.0
 20
1.0
 30
0.0
  9
$PUCSNAME
  2

  9
$PUCSORG
 10
0.0
 20
0.0
 30
0.0
  9
$PUCSXDIR
 10
1.0
 20
0.0
 30
0.0
  9
$PUCSYDIR
 10
0.0
 20
1.0
 30
0.0
  9
$USERI1
 70
     0
  9
$USERI2
 70
     0
  9
$USERI3
 70
     0
  9
$USERI4
 70
     0
  9
$USERI5
 70
     0
  9
$USERR1
 40
0.0
  9
$USERR2
 40
0.0
  9
$USERR3
 40
0.0
  9
$USERR4
 40
0.0
  9
$USERR5
 40
0.0
  9
$WORLDVIEW
 70
     1
  9
$SHADEDGE
 70
     3
  9
$SHADEDIF
 70
    70
  9
$TILEMODE
 70
     1
  9
$MAXACTVP
 70
    48
  9
$PINSBASE
 10
0.0
 20
0.0
 30
0.0
  9
$PLIMCHECK
 70
     0
  9
$PEXTMIN
 10
1.000000000000000E+20
 20
1.000000000000000E+20
 30
1.000000000000000E+20
  9
$PEXTMAX
 10
-1.000000000000000E+20
 20
-1.000000000000000E+20
 30
-1.000000000000000E+20
  9
$PLIMMIN
 10
0.0
 20
0.0
  9
$PLIMMAX
 10
12.0
 20
9.0
  9
$UNITMODE
 70
     0
  9
$VISRETAIN
 70
     1
  9
$PLINEGEN
 70
     0
  9
$PSLTSCALE
 70
     1
  9
$TREEDEPTH
 70
  3020
  9
$PICKSTYLE
 70
     1
  9
$CMLSTYLE
  2
STANDARD
  9
$CMLJUST
 70
     0
  9
$CMLSCALE
 40
1.0
  9
$PROXYGRAPHICS
 70
     1
  9
$MEASUREMENT
 70
     0
  0
ENDSEC
  0
SECTION
  2
CLASSES
  0
CLASS
  1
DICTIONARYVAR
  2
AcDbDictionaryVar
  3
"AutoCAD"
 90
        0
280
     0
281
     0
  0
CLASS
  1
LWPOLYLINE
  2
AcDbPolyline
  3
"AutoCAD"
 90
        0
280
     0
281
     1
  0
ENDSEC
  0
SECTION
  2
TABLES
  0
TABLE
  2
VPORT
  5
8
100
AcDbSymbolTable
 70
     1
  0
VPORT
  5
11
100
AcDbSymbolTableRecord
100
AcDbViewportTableRecord
  2
*ACTIVE
 70
     0
 10
0.0
 20
0.0
 11
1.0
 21
1.0
 12
3.6
 22
4.5
 13
0.0
 23
0.0
 14
1.0
 24
1.0
 15
0.0
 25
0.0
 16
0.0
 26
0.0
 36
1.0
 17
0.0
 27
0.0
 37
0.0
 40
15.0
 41
0.8
 42
50.0
 43
0.0
 44
0.0
 50
0.0
 51
0.0
 71
     0
 72
   100
 73
     1
 74
     1
 75
     0
 76
     0
 77
     0
 78
     0
  0
ENDTAB
  0
TABLE
  2
LTYPE
  5
5
100
AcDbSymbolTable
 70
    40
  0
LTYPE
  5
12
100
AcDbSymbolTableRecord
100
AcDbLinetypeTableRecord
  2
BYBLOCK
 70
     0
  3

 72
    65
 73
     0
 40
0.0
  0
LTYPE
  5
13
100
AcDbSymbolTableRecord
100
AcDbLinetypeTableRecord
  2
BYLAYER
 70
     0
  3

 72
    65
 73
     0
 40
0.0
  0
LTYPE
  5
14
100
AcDbSymbolTableRecord
100
AcDbLinetypeTableRecord
  2
CONTINUOUS
 70
     0
  3
Solid line
 72
    65
 73
     0
 40
0.0
  0
LTYPE
  5
20
100
AcDbSymbolTableRecord
100
AcDbLinetypeTableRecord
  2
HIDDEN
 70
     0
  3
_ _ _ _ _ _ _ _ _ _ _ _ _ _ 
 72
    65
 73
     2
 40
9.524999999999998
 49
6.349999999999999
 74
     0
 49
-3.174999999999999
 74
     0
  0
LTYPE
  5
21
100
AcDbSymbolTableRecord
100
AcDbLinetypeTableRecord
  2
DASHED
 70
     0
  3
__ __ __ __ __ __ __ __ __ 
 72
    65
 73
     2
 40
19.04999999999999
 49
12.7
 74
     0
 49
-6.349999999999999
 74
     0
  0
LTYPE
  5
22
100
AcDbSymbolTableRecord
100
AcDbLinetypeTableRecord
  2
CENTER
 70
     0
  3
____ _ ____ _ ____ _ ____ _ 
 72
    65
 73
     4
 40
50.8
 49
31.75
 74
     0
 49
-6.349999999999999
 74
     0
 49
6.349999999999999
 74
     0
 49
-6.349999999999999
 74
     0
  0
LTYPE
  5
23
100
AcDbSymbolTableRecord
100
AcDbLinetypeTableRecord
  2
PHANTOM
 70
     0
  3
_____ _ _ _____ _ _ _____ _ _ 
 72
    65
 73
     6
 40
63.50000000000001
 49
31.75
 74
     0
 49
-6.349999999999999
 74
     0
 49
6.349999999999999
 74
     0
 49
-6.349999999999999
 74
     0
 49
6.349999999999999
 74
     0
 49
-6.349999999999999
 74
     0
  0
LTYPE
  5
24
100
AcDbSymbolTableRecord
100
AcDbLinetypeTableRecord
  2
DOT
 70
     0
  3
...........................
 72
    65
 73
     2
 40
6.349999999999999
 49
0.0
 74
     0
 49
-6.349999999999999
 74
     0
  0
LTYPE
  5
25
100
AcDbSymbolTableRecord
100
AcDbLinetypeTableRecord
  2
DASHDOT
 70
     0
  3
__ . __ . __ . __ . __ . __ . 
 72
    65
 73
     4
 40
25.4
 49
12.7
 74
     0
 49
-6.349999999999999
 74
     0
 49
0.0
 74
     0
 49
-6.349999999999999
 74
     0
  0
LTYPE
  5
26
100
AcDbSymbolTableRecord
100
AcDbLinetypeTableRecord
  2
DIVIDE
 70
     0
  3
__ . . __ . . __ . . __ . . 
 72
    65
 73
     6
 40
31.75
 49
12.7
 74
     0
 49
-6.349999999999999
 74
     0
 49
0.0
 74
     0
 49
-6.349999999999999
 74
     0
 49
0.0
 74
     0
 49
-6.349999999999999
 74
     0
  0
LTYPE
  5
27
100
AcDbSymbolTableRecord
100
AcDbLinetypeTableRecord
  2
BORDER
 70
     0
  3
__ __ . __ __ . __ __ . __ __ .
 72
    65
 73
     6
 40
44.44999999999999
 49
12.7
 74
     0
 49
-6.349999999999999
 74
     0
 49
12.7
 74
     0
 49
-6.349999999999999
 74
     0
 49
0.0
 74
     0
 49
-6.349999999999999
 74
     0
  0
LTYPE
  5
28
100
AcDbSymbolTableRecord
100
AcDbLinetypeTableRecord
  2
BORDER2
 70
     0
  3
Border (.5x) __.__.__.__.__.__.
 72
    65
 73
     6
 40
0.875
 49
0.25
 74
     0
 49
-0.125
 74
     0
 49
0.25
 74
     0
 49
-0.125
 74
     0
 49
0.0
 74
     0
 49
-0.125
 74
     0
  0
LTYPE
  5
29
100
AcDbSymbolTableRecord
100
AcDbLinetypeTableRecord
  2
BORDERX2
 70
     0
  3
Border (2x) ____  ____  .  ____
 72
    65
 73
     6
 40
3.5
 49
1.0
 74
     0
 49
-0.5
 74
     0
 49
1.0
 74
     0
 49
-0.5
 74
     0
 49
0.0
 74
     0
 49
-0.5
 74
     0
  0
LTYPE
  5
2A
100
AcDbSymbolTableRecord
100
AcDbLinetypeTableRecord
  2
CENTER2
 70
     0
  3
Center (.5x) ___ _ ___ _ ___ _ 
 72
    65
 73
     4
 40
1.125
 49
0.75
 74
     0
 49
-0.125
 74
     0
 49
0.125
 74
     0
 49
-0.125
 74
     0
  0
LTYPE
  5
2B
100
AcDbSymbolTableRecord
100
AcDbLinetypeTableRecord
  2
CENTERX2
 70
     0
  3
Center (2x) ________  __  _____
 72
    65
 73
     4
 40
4.0
 49
2.5
 74
     0
 49
-0.5
 74
     0
 49
0.5
 74
     0
 49
-0.5
 74
     0
  0
LTYPE
  5
2C
100
AcDbSymbolTableRecord
100
AcDbLinetypeTableRecord
  2
DASHDOT2
 70
     0
  3
Dash dot (.5x) _._._._._._._._.
 72
    65
 73
     4
 40
0.5
 49
0.25
 74
     0
 49
-0.125
 74
     0
 49
0.0
 74
     0
 49
-0.125
 74
     0
  0
LTYPE
  5
2D
100
AcDbSymbolTableRecord
100
AcDbLinetypeTableRecord
  2
DASHDOTX2
 70
     0
  3
Dash dot (2x) ____  .  ____  . 
 72
    65
 73
     4
 40
2.0
 49
1.0
 74
     0
 49
-0.5
 74
     0
 49
0.0
 74
     0
 49
-0.5
 74
     0
  0
LTYPE
  5
2E
100
AcDbSymbolTableRecord
100
AcDbLinetypeTableRecord
  2
DASHED2
 70
     0
  3
Dashed (.5x) _ _ _ _ _ _ _ _ _ 
 72
    65
 73
     2
 40
0.375
 49
0.25
 74
     0
 49
-0.125
 74
     0
  0
LTYPE
  5
2F
100
AcDbSymbolTableRecord
100
AcDbLinetypeTableRecord
  2
DASHEDX2
 70
     0
  3
Dashed (2x) ____  ____  ____  _
 72
    65
 73
     2
 40
1.5
 49
1.0
 74
     0
 49
-0.5
 74
     0
  0
LTYPE
  5
30
100
AcDbSymbolTableRecord
100
AcDbLinetypeTableRecord
  2
DIVIDE2
 70
     0
  3
Divide (.5x) __..__..__..__..__
 72
    65
 73
     6
 40
0.625
 49
0.25
 74
     0
 49
-0.125
 74
     0
 49
0.0
 74
     0
 49
-0.125
 74
     0
 49
0.0
 74
     0
 49
-0.125
 74
     0
  0
LTYPE
  5
31
100
AcDbSymbolTableRecord
100
AcDbLinetypeTableRecord
  2
DIVIDEX2
 70
     0
  3
Divide (2x) ________  .  .  ___
 72
    65
 73
     6
 40
2.5
 49
1.0
 74
     0
 49
-0.5
 74
     0
 49
0.0
 74
     0
 49
-0.5
 74
     0
 49
0.0
 74
     0
 49
-0.5
 74
     0
  0
LTYPE
  5
32
100
AcDbSymbolTableRecord
100
AcDbLinetypeTableRecord
  2
DOT2
 70
     0
  3
Dot (.5x) .....................
 72
    65
 73
     2
 40
0.125
 49
0.0
 74
     0
 49
-0.125
 74
     0
  0
LTYPE
  5
33
100
AcDbSymbolTableRecord
100
AcDbLinetypeTableRecord
  2
DOTX2
 70
     0
  3
Dot (2x) .  .  .  .  .  .  .  .
 72
    65
 73
     2
 40
0.5
 49
0.0
 74
     0
 49
-0.5
 74
     0
  0
LTYPE
  5
34
100
AcDbSymbolTableRecord
100
AcDbLinetypeTableRecord
  2
HIDDEN2
 70
     0
  3
Hidden (.5x) _ _ _ _ _ _ _ _ _ 
 72
    65
 73
     2
 40
0.1875
 49
0.125
 74
     0
 49
-0.0625
 74
     0
  0
LTYPE
  5
35
100
AcDbSymbolTableRecord
100
AcDbLinetypeTableRecord
  2
HIDDENX2
 70
     0
  3
Hidden (2x) ____ ____ ____ ____
 72
    65
 73
     2
 40
0.75
 49
0.5
 74
     0
 49
-0.25
 74
     0
  0
LTYPE
  5
36
100
AcDbSymbolTableRecord
100
AcDbLinetypeTableRecord
  2
PHANTOM2
 70
     0
  3
Phantom (.5x) ___ _ _ ___ _ _ _
 72
    65
 73
     6
 40
1.25
 49
0.625
 74
     0
 49
-0.125
 74
     0
 49
0.125
 74
     0
 49
-0.125
 74
     0
 49
0.125
 74
     0
 49
-0.125
 74
     0
  0
LTYPE
  5
37
100
AcDbSymbolTableRecord
100
AcDbLinetypeTableRecord
  2
PHANTOMX2
 70
     0
  3
Phantom (2x) ____________    __
 72
    65
 73
     6
 40
5.0
 49
2.5
 74
     0
 49
-0.5
 74
     0
 49
0.5
 74
     0
 49
-0.5
 74
     0
 49
0.5
 74
     0
 49
-0.5
 74
     0
  0
LTYPE
  5
38
100
AcDbSymbolTableRecord
100
AcDbLinetypeTableRecord
  2
DOTS
 70
     0
  3
Dots - - - - - - - - - - - - - 
 72
    65
 73
     2
 40
0.1
 49
0.05
 74
     0
 49
-0.05
 74
     0
  0
LTYPE
  5
39
100
AcDbSymbolTableRecord
100
AcDbLinetypeTableRecord
  2
ACAD_ISO02W100
 70
     0
  3
__ __ __ __ __ __ __ __ __ __ _
 72
    65
 73
     2
 40
15.0
 49
12.0
 74
     0
 49
-3.0
 74
     0
  0
LTYPE
  5
3A
100
AcDbSymbolTableRecord
100
AcDbLinetypeTableRecord
  2
ACAD_ISO03W100
 70
     0
  3
__    __    __    __    __    _
 72
    65
 73
     2
 40
30.0
 49
12.0
 74
     0
 49
-18.0
 74
     0
  0
LTYPE
  5
3B
100
AcDbSymbolTableRecord
100
AcDbLinetypeTableRecord
  2
ACAD_ISO04W100
 70
     0
  3
____ . ____ . ____ . ____ . ___
 72
    65
 73
     4
 40
30.5
 49
24.0
 74
     0
 49
-3.0
 74
     0
 49
0.5
 74
     0
 49
-3.0
 74
     0
  0
LTYPE
  5
3C
100
AcDbSymbolTableRecord
100
AcDbLinetypeTableRecord
  2
ACAD_ISO05W100
 70
     0
  3
____ .. ____ .. ____ .. ____ ..
 72
    65
 73
     6
 40
34.0
 49
24.0
 74
     0
 49
-3.0
 74
     0
 49
0.5
 74
     0
 49
-3.0
 74
     0
 49
0.5
 74
     0
 49
-3.0
 74
     0
  0
LTYPE
  5
3D
100
AcDbSymbolTableRecord
100
AcDbLinetypeTableRecord
  2
ACAD_ISO06W100
 70
     0
  3
____ ... ____ ... ____ ... ____
 72
    65
 73
     6
 40
34.0
 49
24.0
 74
     0
 49
-3.0
 74
     0
 49
0.5
 74
     0
 49
-3.0
 74
     0
 49
0.5
 74
     0
 49
-3.0
 74
     0
  0
LTYPE
  5
3E
100
AcDbSymbolTableRecord
100
AcDbLinetypeTableRecord
  2
ACAD_ISO07W100
 70
     0
  3
. . . . . . . . . . . . . . . .
 72
    65
 73
     2
 40
3.5
 49
0.5
 74
     0
 49
-3.0
 74
     0
  0
LTYPE
  5
3F
100
AcDbSymbolTableRecord
100
AcDbLinetypeTableRecord
  2
ACAD_ISO08W100
 70
     0
  3
____ __ ____ __ ____ __ ____ __
 72
    65
 73
     4
 40
36.0
 49
24.0
 74
     0
 49
-3.0
 74
     0
 49
6.0
 74
     0
 49
-3.0
 74
     0
  0
LTYPE
  5
40
100
AcDbSymbolTableRecord
100
AcDbLinetypeTableRecord
  2
ACAD_ISO09W100
 70
     0
  3
____ __ __ ____ __ __ ____ __ _
 72
    65
 73
     6
 40
45.0
 49
24.0
 74
     0
 49
-3.0
 74
     0
 49
6.0
 74
     0
 49
-3.0
 74
     0
 49
6.0
 74
     0
 49
-3.0
 74
     0
  0
LTYPE
  5
41
100
AcDbSymbolTableRecord
100
AcDbLinetypeTableRecord
  2
ACAD_ISO10W100
 70
     0
  3
__ . __ . __ . __ . __ . __ . _
 72
    65
 73
     4
 40
18.5
 49
12.0
 74
     0
 49
-3.0
 74
     0
 49
0.5
 74
     0
 49
-3.0
 74
     0
  0
LTYPE
  5
42
100
AcDbSymbolTableRecord
100
AcDbLinetypeTableRecord
  2
ACAD_ISO11W100
 70
     0
  3
__ __ . __ __ . __ __ . __ __ .
 72
    65
 73
     6
 40
33.5
 49
12.0
 74
     0
 49
-3.0
 74
     0
 49
12.0
 74
     0
 49
-3.0
 74
     0
 49
0.5
 74
     0
 49
-3.0
 74
     0
  0
LTYPE
  5
43
100
AcDbSymbolTableRecord
100
AcDbLinetypeTableRecord
  2
ACAD_ISO12W100
 70
     0
  3
__ . . __ . . __ . . __ . . __ 
 72
    65
 73
     6
 40
22.0
 49
12.0
 74
     0
 49
-3.0
 74
     0
 49
0.5
 74
     0
 49
-3.0
 74
     0
 49
0.5
 74
     0
 49
-3.0
 74
     0
  0
LTYPE
  5
44
100
AcDbSymbolTableRecord
100
AcDbLinetypeTableRecord
  2
ACAD_ISO13W100
 70
     0
  3
__ __ . . __ __ . . __ __ . . _
 72
    65
 73
     6
 40
33.5
 49
12.0
 74
     0
 49
-3.0
 74
     0
 49
12.0
 74
     0
 49
-3.0
 74
     0
 49
0.5
 74
     0
 49
-3.0
 74
     0
  0
LTYPE
  5
45
100
AcDbSymbolTableRecord
100
AcDbLinetypeTableRecord
  2
ACAD_ISO14W100
 70
     0
  3
__ . . . __ . . . __ . . . __ .
 72
    65
 73
     6
 40
22.0
 49
12.0
 74
     0
 49
-3.0
 74
     0
 49
0.5
 74
     0
 49
-3.0
 74
     0
 49
0.5
 74
     0
 49
-3.0
 74
     0
  0
LTYPE
  5
46
100
AcDbSymbolTableRecord
100
AcDbLinetypeTableRecord
  2
ACAD_ISO15W100
 70
     0
  3
__ __ . . . __ __ . . . __ __ .
 72
    65
 73
     6
 40
33.5
 49
12.0
 74
     0
 49
-3.0
 74
     0
 49
12.0
 74
     0
 49
-3.0
 74
     0
 49
0.5
 74
     0
 49
-3.0
 74
     0
  0
ENDTAB
  0
TABLE
  2
LAYER
  5
2
100
AcDbSymbolTable
 70
     4
  0
LAYER
  5
E
100
AcDbSymbolTableRecord
100
AcDbLayerTableRecord
  2
0
 70
     0
 62
     7
  6
CONTINUOUS
  0
LAYER
  5
47
100
AcDbSymbolTableRecord
100
AcDbLayerTableRecord
  2
AXES
 70
     0
 62
     1
  6
CONTINUOUS
  0
LAYER
  5
48
100
AcDbSymbolTableRecord
100
AcDbLayerTableRecord
  2
COMMENTS
 70
     0
 62
    94
  6
CONTINUOUS
  0
LAYER
  5
49
100
AcDbSymbolTableRecord
100
AcDbLayerTableRecord
  2
MAINPANEL
 70
     0
 62
     7
  6
CONTINUOUS
  0
ENDTAB
  0
TABLE
  2
STYLE
  5
3
100
AcDbSymbolTable
 70
     5
  0
STYLE
  5
F
100
AcDbSymbolTableRecord
100
AcDbTextStyleTableRecord
  2
STANDARD
 70
     0
 40
0.0
 41
1.0
 50
0.0
 71
     0
 42
76.88032662602641
  3
txt
  4

  0
STYLE
  5
4A
100
AcDbSymbolTableRecord
100
AcDbTextStyleTableRecord
  2
ITALIC
 70
     0
 40
0.0
 41
1.0
 50
0.0
 71
     0
 42
76.88032662602641
  3
ITALIC
  4

  0
STYLE
  5
4B
100
AcDbSymbolTableRecord
100
AcDbTextStyleTableRecord
  2
SIMPLEX
 70
     0
 40
0.0
 41
1.0
 50
0.0
 71
     0
 42
76.88032662602641
  3
SIMPLEX
  4

  0
STYLE
  5
4C
100
AcDbSymbolTableRecord
100
AcDbTextStyleTableRecord
  2
COMPLEX
 70
     0
 40
0.0
 41
1.0
 50
0.0
 71
     0
 42
76.88032662602641
  3
COMPLEX
  4

  0
STYLE
  5
55
100
AcDbSymbolTableRecord
100
AcDbTextStyleTableRecord
  2
ARIAL
 70
     0
 40
0.0
 41
1.0
 50
0.0
 71
     0
 42
76.88032662602641
  3
ARIAL.TTF
  4

1001
ACAD
1000
Arial
1071
        0
  0
ENDTAB
  0
TABLE
  2
VIEW
  5
6
100
AcDbSymbolTable
 70
     0
  0
ENDTAB
  0
TABLE
  2
UCS
  5
7
100
AcDbSymbolTable
 70
     0
  0
ENDTAB
  0
TABLE
  2
APPID
  5
9
100
AcDbSymbolTable
 70
     1
  0
APPID
  5
10
100
AcDbSymbolTableRecord
100
AcDbRegAppTableRecord
  2
ACAD
 70
     0
  0
ENDTAB
  0
TABLE
  2
DIMSTYLE
  5
A
100
AcDbSymbolTable
 70
     1
  0
DIMSTYLE
105
1D
100
AcDbSymbolTableRecord
100
AcDbDimStyleTableRecord
  2
STANDARD
 70
     0
  3

  4

  5

  6

  7

 40
1.0
 41
0.18
 42
0.0625
 43
0.38
 44
0.18
 45
0.0
 46
0.0
 47
0.0
 48
0.0
140
0.18
141
0.09
142
0.0
143
25.4
144
1.0
145
0.0
146
1.0
147
0.09
 71
     0
 72
     0
 73
     1
 74
     1
 75
     0
 76
     0
 77
     0
 78
     0
170
     0
171
     2
172
     0
173
     0
174
     0
175
     0
176
     0
177
     0
178
     0
270
     2
271
     4
272
     4
273
     2
274
     2
340
F
275
     0
280
     0
281
     0
282
     0
283
     1
284
     0
285
     0
286
     0
287
     3
288
     0
  0
ENDTAB
  0
TABLE
  2
BLOCK_RECORD
  5
1
100
AcDbSymbolTable
 70
     0
  0
BLOCK_RECORD
  5
18
100
AcDbSymbolTableRecord
100
AcDbBlockTableRecord
  2
*MODEL_SPACE
  0
BLOCK_RECORD
  5
15
100
AcDbSymbolTableRecord
100
AcDbBlockTableRecord
  2
*PAPER_SPACE
  0
ENDTAB
  0
ENDSEC
  0
SECTION
  2
BLOCKS
  0
BLOCK
  5
19
100
AcDbEntity
  8
0
100
AcDbBlockBegin
  2
*MODEL_SPACE
 70
     0
 10
0.0
 20
0.0
 30
0.0
  3
*MODEL_SPACE
  1

  0
ENDBLK
  5
1A
100
AcDbEntity
  8
0
100
AcDbBlockEnd
  0
BLOCK
  5
16
100
AcDbEntity
 67
     1
  8
0
100
AcDbBlockBegin
  2
*PAPER_SPACE
 70
     0
 10
0.0
 20
0.0
 30
0.0
  3
*PAPER_SPACE
  1

  0
ENDBLK
  5
17
100
AcDbEntity
 67
     1
  8
0
100
AcDbBlockEnd
  0
ENDSEC
  0
SECTION
  2
ENTITIES
  0
LINE
  5
4D
100
AcDbEntity
  8
MAINPANEL
  6
CONTINUOUS
100
AcDbLine
 10
14369.61960352817
 20
542.7117794131277
 30
0.0
 11
14369.61960352816
 21
562.7117794131303
 31
0.0
  0
LINE
  5
4E
100
AcDbEntity
  8
MAINPANEL
  6
CONTINUOUS
100
AcDbLine
 10
14378.61960352817
 20
542.7117794131277
 30
0.0
 11
14378.61960352817
 21
562.7117794131306
 31
0.0
  0
LINE
  5
4F
100
AcDbEntity
  8
MAINPANEL
  6
CONTINUOUS
100
AcDbLine
 10
14369.61960352816
 20
542.7117794131259
 30
0.0
 11
14378.61960352817
 21
542.7117794131277
 31
0.0
  0
LINE
  5
50
100
AcDbEntity
  8
MAINPANEL
  6
CONTINUOUS
100
AcDbLine
 10
14369.61960352816
 20
562.711779413126
 30
0.0
 11
14378.61960352817
 21
562.7117794131264
 31
0.0
  0
LINE
  5
51
100
AcDbEntity
  8
MAINPANEL
  6
CONTINUOUS
100
AcDbLine
 10
14395.00738639812
 20
542.7117794131277
 30
0.0
 11
14395.00738639812
 21
552.7117794131239
 31
0.0
  0
LINE
  5
52
100
AcDbEntity
  8
MAINPANEL
  6
CONTINUOUS
100
AcDbLine
 10
14395.00738639812
 20
542.7117794131259
 30
0.0
 11
14430.00738639811
 21
542.711779413124
 31
0.0
  0
ARC
  5
53
100
AcDbEntity
  8
MAINPANEL
  6
CONTINUOUS
100
AcDbCircle
 10
14405.00738639812
 20
552.7117794131261
 30
0.0
 40
9.999999999999998
100
AcDbArc
 50
65.00000000000593
 51
180.0
  0
CIRCLE
  5
54
100
AcDbEntity
  8
MAINPANEL
  6
CONTINUOUS
100
AcDbCircle
 10
14405.00738639812
 20
552.7117794131261
 30
0.0
 40
4.999999999999999
  0
TEXT
  5
56
100
AcDbEntity
  8
COMMENTS
  6
CONTINUOUS
100
AcDbText
 10
14341.04613059361
 20
597.0588585505274
 30
0.0
 40
7.688032662602642
  1
Hinges are welded 
 41
0.6000000000000001
  7
ARIAL
 11
14341.04613059361
 21
597.0588585505274
 31
0.0
100
AcDbText
 73
     1
  0
TEXT
  5
57
100
AcDbEntity
  8
COMMENTS
  6
CONTINUOUS
100
AcDbText
 10
14341.04613059361
 20
585.5268095566235
 30
-11.53204899390396
 40
7.688032662602642
  1
to main segment
 41
0.6000000000000001
  7
ARIAL
 11
14341.04613059361
 21
585.5268095566235
 31
-11.53204899390396
100
AcDbText
 73
     1
  0
LINE
  5
58
100
AcDbEntity
  8
MAINPANEL
  6
CONTINUOUS
100
AcDbLine
 10
14343.61960352817
 20
542.7117794131277
 30
0.0
 11
14343.61960352817
 21
562.7117794131293
 31
0.0
  0
LINE
  5
59
100
AcDbEntity
  8
MAINPANEL
  6
CONTINUOUS
100
AcDbLine
 10
14352.61960352817
 20
542.7117794131277
 30
0.0
 11
14352.61960352817
 21
562.7117794131296
 31
0.0
  0
LINE
  5
5A
100
AcDbEntity
  8
MAINPANEL
  6
CONTINUOUS
100
AcDbLine
 10
14343.61960352817
 20
542.7117794131259
 30
0.0
 11
14352.61960352817
 21
542.7117794131277
 31
0.0
  0
LINE
  5
5B
100
AcDbEntity
  8
MAINPANEL
  6
CONTINUOUS
100
AcDbLine
 10
14343.61960352817
 20
562.711779413126
 30
0.0
 11
14352.61960352817
 21
562.7117794131264
 31
0.0
  0
LINE
  5
5C
100
AcDbEntity
  8
MAINPANEL
  6
CONTINUOUS
100
AcDbLine
 10
14430.00738639811
 20
542.711779413124
 30
0.0
 11
14430.00738639811
 21
552.0878671488774
 31
0.0
  0
LINE
  5
5D
100
AcDbEntity
  8
MAINPANEL
  6
CONTINUOUS
100
AcDbLine
 10
14409.23356901552
 20
561.7748572834921
 30
0.0
 11
14430.00738639811
 21
552.0878671488795
 31
0.0
  0
LINE
  5
5E
100
AcDbEntity
  8
MAINPANEL
  6
CONTINUOUS
100
AcDbLine
 10
13356.95931211231
 20
-878.3223141470722
 30
0.0
 11
13961.95931211231
 21
-878.3223141470722
 31
0.0
  0
LINE
  5
5F
100
AcDbEntity
  8
MAINPANEL
  6
CONTINUOUS
100
AcDbLine
 10
13356.95931211231
 20
-903.3223141470724
 30
0.0
 11
13961.95931211231
 21
-903.3223141470724
 31
0.0
  0
LINE
  5
60
100
AcDbEntity
  8
MAINPANEL
  6
CONTINUOUS
100
AcDbLine
 10
13961.95931211231
 20
-903.3223141470724
 30
0.0
 11
13961.95931211231
 21
-878.3223141470722
 31
0.0
  0
LINE
  5
61
100
AcDbEntity
  8
MAINPANEL
  6
CONTINUOUS
100
AcDbLine
 10
13356.95931211231
 20
-878.3223141470722
 30
0.0
 11
13356.95931211231
 21
-903.3223141470724
 31
0.0
  0
LINE
  5
62
100
AcDbEntity
  8
MAINPANEL
  6
CONTINUOUS
100
AcDbLine
 10
13356.95931211231
 20
-821.3965918682538
 30
0.0
 11
13961.95931211231
 21
-821.3965918682367
 31
0.0
  0
LINE
  5
63
100
AcDbEntity
  8
MAINPANEL
  6
CONTINUOUS
100
AcDbLine
 10
13961.95931211231
 20
-821.3965918682514
 30
0.0
 11
13961.95931211231
 21
-166.3965918682515
 31
0.0
  0
LINE
  5
64
100
AcDbEntity
  8
MAINPANEL
  6
CONTINUOUS
100
AcDbLine
 10
13356.95931211231
 20
-821.3965918682514
 30
0.0
 11
13356.95931211231
 21
-166.3965918682515
 31
0.0
  0
LINE
  5
65
100
AcDbEntity
  8
MAINPANEL
  6
CONTINUOUS
100
AcDbLine
 10
13356.95931211231
 20
-883.3223141470721
 30
0.0
 11
13961.95931211231
 21
-883.3223141470721
 31
0.0
  0
LINE
  5
66
100
AcDbEntity
  8
MAINPANEL
  6
CONTINUOUS
100
AcDbLine
 10
13372.95931211231
 20
-196.3965918682509
 30
0.0
 11
13372.95931211232
 21
-191.3965918682505
 31
0.0
  0
LINE
  5
67
100
AcDbEntity
  8
MAINPANEL
  6
CONTINUOUS
100
AcDbLine
 10
13390.95931211231
 20
-196.3965918682509
 30
0.0
 11
13390.95931211231
 21
-191.3965918682469
 31
0.0
  0
LINE
  5
68
100
AcDbEntity
  8
MAINPANEL
  6
CONTINUOUS
100
AcDbLine
 10
13582.95931211232
 20
-196.3965918682509
 30
0.0
 11
13582.95931211233
 21
-191.3965918682084
 31
0.0
  0
LINE
  5
69
100
AcDbEntity
  8
MAINPANEL
  6
CONTINUOUS
100
AcDbLine
 10
13600.95931211231
 20
-196.3965918682509
 30
0.0
 11
13600.95931211232
 21
-191.3965918682048
 31
0.0
  0
LINE
  5
6A
100
AcDbEntity
  8
MAINPANEL
  6
CONTINUOUS
100
AcDbLine
 10
13792.95931211231
 20
-196.3965918682509
 30
0.0
 11
13792.95931211231
 21
-191.3965918681663
 31
0.0
  0
LINE
  5
6B
100
AcDbEntity
  8
MAINPANEL
  6
CONTINUOUS
100
AcDbLine
 10
13810.95931211232
 20
-196.3965918682509
 30
0.0
 11
13810.95931211231
 21
-191.3965918681626
 31
0.0
  0
LINE
  5
6C
100
AcDbEntity
  8
MAINPANEL
  6
CONTINUOUS
100
AcDbLine
 10
13927.95931211232
 20
-196.3965918682509
 30
0.0
 11
13927.95931211231
 21
-191.3965918681392
 31
0.0
  0
LINE
  5
6D
100
AcDbEntity
  8
MAINPANEL
  6
CONTINUOUS
100
AcDbLine
 10
13945.95931211232
 20
-196.3965918682509
 30
0.0
 11
13945.95931211231
 21
-191.3965918681356
 31
0.0
  0
LINE
  5
6E
100
AcDbEntity
  8
MAINPANEL
  6
CONTINUOUS
100
AcDbLine
 10
13820.95931211232
 20
-196.3965918682509
 30
0.0
 11
13820.95931211231
 21
-166.3965918682515
 31
0.0
  0
LINE
  5
6F
100
AcDbEntity
  8
MAINPANEL
  6
CONTINUOUS
100
AcDbLine
 10
13917.95931211232
 20
-196.3965918682509
 30
0.0
 11
13917.95931211232
 21
-166.3965918682515
 31
0.0
  0
LINE
  5
70
100
AcDbEntity
  8
MAINPANEL
  6
CONTINUOUS
100
AcDbLine
 10
13372.95931211232
 20
-196.3965918682509
 30
0.0
 11
13390.95931211231
 21
-196.3965918682495
 31
0.0
  0
LINE
  5
71
100
AcDbEntity
  8
MAINPANEL
  6
CONTINUOUS
100
AcDbLine
 10
13582.95931211233
 20
-196.3965918682521
 30
0.0
 11
13600.95931211233
 21
-196.3965918682527
 31
0.0
  0
LINE
  5
72
100
AcDbEntity
  8
MAINPANEL
  6
CONTINUOUS
100
AcDbLine
 10
13792.95931211231
 20
-196.3965918682529
 30
0.0
 11
13810.95931211231
 21
-196.3965918682619
 31
0.0
  0
LINE
  5
73
100
AcDbEntity
  8
MAINPANEL
  6
CONTINUOUS
100
AcDbLine
 10
13820.95931211233
 20
-196.3965918682525
 30
0.0
 11
13917.95931211232
 21
-196.3965918682569
 31
0.0
  0
LINE
  5
74
100
AcDbEntity
  8
MAINPANEL
  6
CONTINUOUS
100
AcDbLine
 10
13927.95931211231
 20
-196.3965918682505
 30
0.0
 11
13945.95931211231
 21
-196.3965918682537
 31
0.0
  0
LINE
  5
75
100
AcDbEntity
  8
MAINPANEL
  6
CONTINUOUS
100
AcDbLine
 10
13356.95931211231
 20
-166.3965918682515
 30
0.0
 11
13364.45931211233
 21
-166.3965918682496
 31
0.0
  0
LINE
  5
76
100
AcDbEntity
  8
MAINPANEL
  6
CONTINUOUS
100
AcDbLine
 10
13399.45931211232
 20
-166.3965918682518
 30
0.0
 11
13574.45931211233
 21
-166.3965918682502
 31
0.0
  0
LINE
  5
77
100
AcDbEntity
  8
MAINPANEL
  6
CONTINUOUS
100
AcDbLine
 10
13609.45931211232
 20
-166.3965918682507
 30
0.0
 11
13784.45931211232
 21
-166.3965918682523
 31
0.0
  0
LINE
  5
78
100
AcDbEntity
  8
MAINPANEL
  6
CONTINUOUS
100
AcDbLine
 10
13819.45931211233
 20
-166.3965918682467
 30
0.0
 11
13820.95931211233
 21
-166.3965918682514
 31
0.0
  0
LINE
  5
79
100
AcDbEntity
  8
MAINPANEL
  6
CONTINUOUS
100
AcDbLine
 10
13917.95931211232
 20
-166.396591868252
 30
0.0
 11
13919.45931211233
 21
-166.3965918682514
 31
0.0
  0
LINE
  5
7A
100
AcDbEntity
  8
MAINPANEL
  6
CONTINUOUS
100
AcDbLine
 10
13954.45931211232
 20
-166.3965918682503
 30
0.0
 11
13961.95931211231
 21
-166.3965918682515
 31
0.0
  0
LINE
  5
7B
100
AcDbEntity
  8
AXES
  6
CONTINUOUS
100
AcDbLine
 10
13936.95931211232
 20
-195.6614638417003
 30
0.0
 11
13936.95931211232
 21
-138.7354285188877
 31
0.0
  0
LINE
  5
7C
100
AcDbEntity
  8
AXES
  6
CONTINUOUS
100
AcDbLine
 10
13801.95931211231
 20
-195.6614638417003
 30
0.0
 11
13801.95931211231
 21
-138.7354285188877
 31
0.0
  0
LINE
  5
7D
100
AcDbEntity
  8
AXES
  6
CONTINUOUS
100
AcDbLine
 10
13591.95931211232
 20
-195.6614638417003
 30
0.0
 11
13591.95931211232
 21
-138.7354285188877
 31
0.0
  0
LINE
  5
7E
100
AcDbEntity
  8
AXES
  6
CONTINUOUS
100
AcDbLine
 10
13381.95931211232
 20
-195.6614638417003
 30
0.0
 11
13381.95931211232
 21
-138.7354285188877
 31
0.0
  0
LINE
  5
7F
100
AcDbEntity
  8
MAINPANEL
  6
CONTINUOUS
100
AcDbLine
 10
13945.45931211232
 20
-191.3965918682641
 30
0.0
 11
13945.45931211232
 21
-156.3965918682521
 31
0.0
  0
LINE
  5
80
100
AcDbEntity
  8
MAINPANEL
  6
CONTINUOUS
100
AcDbLine
 10
13954.45931211232
 20
-191.3965918682623
 30
0.0
 11
13954.45931211232
 21
-156.3965918682518
 31
0.0
  0
LINE
  5
81
100
AcDbEntity
  8
MAINPANEL
  6
CONTINUOUS
100
AcDbLine
 10
13945.45931211232
 20
-191.3965918682564
 30
0.0
 11
13954.45931211232
 21
-191.3965918682546
 31
0.0
  0
LINE
  5
82
100
AcDbEntity
  8
MAINPANEL
  6
CONTINUOUS
100
AcDbLine
 10
13945.45931211232
 20
-156.3965918682564
 30
0.0
 11
13954.45931211232
 21
-156.3965918682562
 31
0.0
  0
LINE
  5
83
100
AcDbEntity
  8
MAINPANEL
  6
CONTINUOUS
100
AcDbLine
 10
13919.45931211232
 20
-191.3965918682694
 30
0.0
 11
13919.45931211232
 21
-156.3965918682529
 31
0.0
  0
LINE
  5
84
100
AcDbEntity
  8
MAINPANEL
  6
CONTINUOUS
100
AcDbLine
 10
13928.45931211232
 20
-191.3965918682676
 30
0.0
 11
13928.45931211232
 21
-156.3965918682526
 31
0.0
  0
LINE
  5
85
100
AcDbEntity
  8
MAINPANEL
  6
CONTINUOUS
100
AcDbLine
 10
13919.45931211232
 20
-191.3965918682564
 30
0.0
 11
13928.45931211232
 21
-191.3965918682546
 31
0.0
  0
LINE
  5
86
100
AcDbEntity
  8
MAINPANEL
  6
CONTINUOUS
100
AcDbLine
 10
13919.45931211232
 20
-156.3965918682564
 30
0.0
 11
13928.45931211232
 21
-156.3965918682562
 31
0.0
  0
LINE
  5
87
100
AcDbEntity
  8
AXES
  6
CONTINUOUS
100
AcDbLine
 10
14008.15479593565
 20
-166.3965918682518
 30
0.0
 11
13319.61779138255
 21
-166.3965918682505
 31
0.0
  0
LINE
  5
88
100
AcDbEntity
  8
MAINPANEL
  6
CONTINUOUS
100
AcDbLine
 10
13810.45931211233
 20
-191.3965918682641
 30
0.0
 11
13810.45931211233
 21
-156.3965918682521
 31
0.0
  0
LINE
  5
89
100
AcDbEntity
  8
MAINPANEL
  6
CONTINUOUS
100
AcDbLine
 10
13819.45931211233
 20
-191.3965918682623
 30
0.0
 11
13819.45931211233
 21
-156.3965918682518
 31
0.0
  0
LINE
  5
8A
100
AcDbEntity
  8
MAINPANEL
  6
CONTINUOUS
100
AcDbLine
 10
13810.45931211233
 20
-191.3965918682564
 30
0.0
 11
13819.45931211233
 21
-191.3965918682546
 31
0.0
  0
LINE
  5
8B
100
AcDbEntity
  8
MAINPANEL
  6
CONTINUOUS
100
AcDbLine
 10
13810.45931211233
 20
-156.3965918682564
 30
0.0
 11
13819.45931211233
 21
-156.3965918682562
 31
0.0
  0
LINE
  5
8C
100
AcDbEntity
  8
MAINPANEL
  6
CONTINUOUS
100
AcDbLine
 10
13784.45931211233
 20
-191.3965918682694
 30
0.0
 11
13784.45931211233
 21
-156.3965918682529
 31
0.0
  0
LINE
  5
8D
100
AcDbEntity
  8
MAINPANEL
  6
CONTINUOUS
100
AcDbLine
 10
13793.45931211233
 20
-191.3965918682676
 30
0.0
 11
13793.45931211233
 21
-156.3965918682526
 31
0.0
  0
LINE
  5
8E
100
AcDbEntity
  8
MAINPANEL
  6
CONTINUOUS
100
AcDbLine
 10
13784.45931211233
 20
-191.3965918682564
 30
0.0
 11
13793.45931211233
 21
-191.3965918682546
 31
0.0
  0
LINE
  5
8F
100
AcDbEntity
  8
MAINPANEL
  6
CONTINUOUS
100
AcDbLine
 10
13784.45931211233
 20
-156.3965918682564
 30
0.0
 11
13793.45931211233
 21
-156.3965918682562
 31
0.0
  0
LINE
  5
90
100
AcDbEntity
  8
MAINPANEL
  6
CONTINUOUS
100
AcDbLine
 10
13600.45931211233
 20
-191.3965918682641
 30
0.0
 11
13600.45931211232
 21
-156.3965918682521
 31
0.0
  0
LINE
  5
91
100
AcDbEntity
  8
MAINPANEL
  6
CONTINUOUS
100
AcDbLine
 10
13609.45931211233
 20
-191.3965918682623
 30
0.0
 11
13609.45931211232
 21
-156.3965918682518
 31
0.0
  0
LINE
  5
92
100
AcDbEntity
  8
MAINPANEL
  6
CONTINUOUS
100
AcDbLine
 10
13600.45931211232
 20
-191.3965918682564
 30
0.0
 11
13609.45931211233
 21
-191.3965918682546
 31
0.0
  0
LINE
  5
93
100
AcDbEntity
  8
MAINPANEL
  6
CONTINUOUS
100
AcDbLine
 10
13600.45931211232
 20
-156.3965918682564
 30
0.0
 11
13609.45931211232
 21
-156.3965918682562
 31
0.0
  0
LINE
  5
94
100
AcDbEntity
  8
MAINPANEL
  6
CONTINUOUS
100
AcDbLine
 10
13574.45931211233
 20
-191.3965918682694
 30
0.0
 11
13574.45931211233
 21
-156.3965918682529
 31
0.0
  0
LINE
  5
95
100
AcDbEntity
  8
MAINPANEL
  6
CONTINUOUS
100
AcDbLine
 10
13583.45931211232
 20
-191.3965918682676
 30
0.0
 11
13583.45931211232
 21
-156.3965918682526
 31
0.0
  0
LINE
  5
96
100
AcDbEntity
  8
MAINPANEL
  6
CONTINUOUS
100
AcDbLine
 10
13574.45931211232
 20
-191.3965918682564
 30
0.0
 11
13583.45931211233
 21
-191.3965918682546
 31
0.0
  0
LINE
  5
97
100
AcDbEntity
  8
MAINPANEL
  6
CONTINUOUS
100
AcDbLine
 10
13574.45931211232
 20
-156.3965918682564
 30
0.0
 11
13583.45931211232
 21
-156.3965918682562
 31
0.0
  0
LINE
  5
98
100
AcDbEntity
  8
MAINPANEL
  6
CONTINUOUS
100
AcDbLine
 10
13390.45931211233
 20
-191.3965918682641
 30
0.0
 11
13390.45931211232
 21
-156.3965918682521
 31
0.0
  0
LINE
  5
99
100
AcDbEntity
  8
MAINPANEL
  6
CONTINUOUS
100
AcDbLine
 10
13399.45931211233
 20
-191.3965918682623
 30
0.0
 11
13399.45931211232
 21
-156.3965918682518
 31
0.0
  0
LINE
  5
9A
100
AcDbEntity
  8
MAINPANEL
  6
CONTINUOUS
100
AcDbLine
 10
13390.45931211232
 20
-191.3965918682564
 30
0.0
 11
13399.45931211233
 21
-191.3965918682546
 31
0.0
  0
LINE
  5
9B
100
AcDbEntity
  8
MAINPANEL
  6
CONTINUOUS
100
AcDbLine
 10
13390.45931211232
 20
-156.3965918682564
 30
0.0
 11
13399.45931211233
 21
-156.3965918682562
 31
0.0
  0
LINE
  5
9C
100
AcDbEntity
  8
MAINPANEL
  6
CONTINUOUS
100
AcDbLine
 10
13364.45931211232
 20
-191.3965918682694
 30
0.0
 11
13364.45931211232
 21
-156.3965918682529
 31
0.0
  0
LINE
  5
9D
100
AcDbEntity
  8
MAINPANEL
  6
CONTINUOUS
100
AcDbLine
 10
13373.45931211233
 20
-191.3965918682676
 30
0.0
 11
13373.45931211233
 21
-156.3965918682526
 31
0.0
  0
LINE
  5
9E
100
AcDbEntity
  8
MAINPANEL
  6
CONTINUOUS
100
AcDbLine
 10
13364.45931211232
 20
-191.3965918682564
 30
0.0
 11
13373.45931211233
 21
-191.3965918682546
 31
0.0
  0
LINE
  5
9F
100
AcDbEntity
  8
MAINPANEL
  6
CONTINUOUS
100
AcDbLine
 10
13364.45931211232
 20
-156.3965918682564
 30
0.0
 11
13373.45931211233
 21
-156.3965918682562
 31
0.0
  0
LINE
  5
A0
100
AcDbEntity
  8
MAINPANEL
  6
CONTINUOUS
100
AcDbLine
 10
13356.95931211231
 20
820.1960917521216
 30
0.0
 11
13961.95931211231
 21
820.1960917521216
 31
0.0
  0
LINE
  5
A1
100
AcDbEntity
  8
MAINPANEL
  6
CONTINUOUS
100
AcDbLine
 10
13961.95931211231
 20
820.1960917521216
 30
0.0
 11
13961.95931211231
 21
165.1960917521217
 31
0.0
  0
LINE
  5
A2
100
AcDbEntity
  8
MAINPANEL
  6
CONTINUOUS
100
AcDbLine
 10
13356.95931211231
 20
820.1960917521216
 30
0.0
 11
13356.95931211231
 21
165.1960917521217
 31
0.0
  0
LINE
  5
A3
100
AcDbEntity
  8
MAINPANEL
  6
CONTINUOUS
100
AcDbLine
 10
13372.95931211231
 20
195.1960917521211
 30
0.0
 11
13372.95931211231
 21
165.1960917521217
 31
0.0
  0
LINE
  5
A4
100
AcDbEntity
  8
MAINPANEL
  6
CONTINUOUS
100
AcDbLine
 10
13390.95931211231
 20
195.1960917521211
 30
0.0
 11
13390.95931211231
 21
165.1960917521217
 31
0.0
  0
LINE
  5
A5
100
AcDbEntity
  8
MAINPANEL
  6
CONTINUOUS
100
AcDbLine
 10
13582.95931211232
 20
195.1960917521211
 30
0.0
 11
13582.95931211232
 21
165.1960917521217
 31
0.0
  0
LINE
  5
A6
100
AcDbEntity
  8
MAINPANEL
  6
CONTINUOUS
100
AcDbLine
 10
13600.95931211231
 20
195.1960917521211
 30
0.0
 11
13600.95931211231
 21
165.1960917521217
 31
0.0
  0
LINE
  5
A7
100
AcDbEntity
  8
MAINPANEL
  6
CONTINUOUS
100
AcDbLine
 10
13792.95931211231
 20
195.1960917521211
 30
0.0
 11
13792.95931211232
 21
165.1960917521217
 31
0.0
  0
LINE
  5
A8
100
AcDbEntity
  8
MAINPANEL
  6
CONTINUOUS
100
AcDbLine
 10
13810.95931211232
 20
195.1960917521211
 30
0.0
 11
13810.95931211232
 21
165.1960917521217
 31
0.0
  0
LINE
  5
A9
100
AcDbEntity
  8
MAINPANEL
  6
CONTINUOUS
100
AcDbLine
 10
13927.95931211232
 20
195.1960917521211
 30
0.0
 11
13927.95931211232
 21
165.1960917521217
 31
0.0
  0
LINE
  5
AA
100
AcDbEntity
  8
MAINPANEL
  6
CONTINUOUS
100
AcDbLine
 10
13945.95931211232
 20
195.1960917521211
 30
0.0
 11
13945.95931211232
 21
165.1960917521217
 31
0.0
  0
LINE
  5
AB
100
AcDbEntity
  8
MAINPANEL
  6
CONTINUOUS
100
AcDbLine
 10
13820.95931211232
 20
195.1960917521211
 30
0.0
 11
13820.95931211231
 21
165.1960917521217
 31
0.0
  0
LINE
  5
AC
100
AcDbEntity
  8
MAINPANEL
  6
CONTINUOUS
100
AcDbLine
 10
13917.95931211232
 20
195.1960917521211
 30
0.0
 11
13917.95931211232
 21
165.1960917521217
 31
0.0
  0
LINE
  5
AD
100
AcDbEntity
  8
MAINPANEL
  6
CONTINUOUS
100
AcDbLine
 10
13372.95931211232
 20
195.1960917521211
 30
0.0
 11
13390.95931211231
 21
195.1960917521197
 31
0.0
  0
LINE
  5
AE
100
AcDbEntity
  8
MAINPANEL
  6
CONTINUOUS
100
AcDbLine
 10
13582.95931211233
 20
195.1960917521223
 30
0.0
 11
13600.95931211233
 21
195.1960917521229
 31
0.0
  0
LINE
  5
AF
100
AcDbEntity
  8
MAINPANEL
  6
CONTINUOUS
100
AcDbLine
 10
13792.95931211231
 20
195.1960917521231
 30
0.0
 11
13810.95931211231
 21
195.1960917521321
 31
0.0
  0
LINE
  5
B0
100
AcDbEntity
  8
MAINPANEL
  6
CONTINUOUS
100
AcDbLine
 10
13820.95931211233
 20
195.1960917521227
 30
0.0
 11
13917.95931211232
 21
195.1960917521271
 31
0.0
  0
LINE
  5
B1
100
AcDbEntity
  8
MAINPANEL
  6
CONTINUOUS
100
AcDbLine
 10
13927.95931211231
 20
195.1960917521207
 30
0.0
 11
13945.95931211231
 21
195.1960917521239
 31
0.0
  0
LINE
  5
B2
100
AcDbEntity
  8
MAINPANEL
  6
CONTINUOUS
100
AcDbLine
 10
13356.95931211231
 20
165.1960917521217
 30
0.0
 11
13372.95931211232
 21
165.196091752119
 31
0.0
  0
LINE
  5
B3
100
AcDbEntity
  8
MAINPANEL
  6
CONTINUOUS
100
AcDbLine
 10
13390.95931211231
 20
165.1960917521216
 30
0.0
 11
13582.95931211233
 21
165.1960917521211
 31
0.0
  0
LINE
  5
B4
100
AcDbEntity
  8
MAINPANEL
  6
CONTINUOUS
100
AcDbLine
 10
13600.95931211232
 20
165.1960917521219
 30
0.0
 11
13792.95931211231
 21
165.1960917521227
 31
0.0
  0
LINE
  5
B5
100
AcDbEntity
  8
MAINPANEL
  6
CONTINUOUS
100
AcDbLine
 10
13810.95931211231
 20
165.1960917521231
 30
0.0
 11
13820.95931211233
 21
165.1960917521216
 31
0.0
  0
LINE
  5
B6
100
AcDbEntity
  8
MAINPANEL
  6
CONTINUOUS
100
AcDbLine
 10
13917.95931211232
 20
165.1960917521222
 30
0.0
 11
13927.95931211231
 21
165.196091752124
 31
0.0
  0
LINE
  5
B7
100
AcDbEntity
  8
MAINPANEL
  6
CONTINUOUS
100
AcDbLine
 10
13945.95931211232
 20
165.1960917521217
 30
0.0
 11
13961.95931211231
 21
165.1960917521217
 31
0.0
  0
LINE
  5
B8
100
AcDbEntity
  8
AXES
  6
CONTINUOUS
100
AcDbLine
 10
13936.95931211232
 20
194.4609637255705
 30
0.0
 11
13936.95931211232
 21
137.5349284027579
 31
0.0
  0
LINE
  5
B9
100
AcDbEntity
  8
AXES
  6
CONTINUOUS
100
AcDbLine
 10
13801.95931211231
 20
194.4609637255705
 30
0.0
 11
13801.95931211231
 21
137.5349284027579
 31
0.0
  0
LINE
  5
BA
100
AcDbEntity
  8
AXES
  6
CONTINUOUS
100
AcDbLine
 10
13591.95931211232
 20
194.4609637255705
 30
0.0
 11
13591.95931211232
 21
137.5349284027579
 31
0.0
  0
LINE
  5
BB
100
AcDbEntity
  8
AXES
  6
CONTINUOUS
100
AcDbLine
 10
13381.95931211232
 20
194.4609637255705
 30
0.0
 11
13381.95931211232
 21
137.5349284027579
 31
0.0
  0
LINE
  5
BC
100
AcDbEntity
  8
AXES
  6
CONTINUOUS
100
AcDbLine
 10
14003.1139225772
 20
165.196091752122
 30
0.0
 11
13315.35166872424
 21
165.196091752119
 31
0.0
  0
LINE
  5
BD
100
AcDbEntity
  8
MAINPANEL
  6
CONTINUOUS
100
AcDbLine
 10
13390.45931211233
 20
190.1960917521343
 30
0.0
 11
13390.45931211232
 21
155.1960917521223
 31
0.0
  0
LINE
  5
BE
100
AcDbEntity
  8
MAINPANEL
  6
CONTINUOUS
100
AcDbLine
 10
13399.45931211232
 20
165.1960917521047
 30
0.0
 11
13399.45931211232
 21
155.196091752122
 31
0.0
  0
LINE
  5
BF
100
AcDbEntity
  8
MAINPANEL
  6
CONTINUOUS
100
AcDbLine
 10
13390.45931211232
 20
190.1960917521266
 30
0.0
 11
13390.95931211231
 21
190.1960917521088
 31
0.0
  0
LINE
  5
C0
100
AcDbEntity
  8
MAINPANEL
  6
CONTINUOUS
100
AcDbLine
 10
13390.45931211232
 20
155.1960917521266
 30
0.0
 11
13399.45931211233
 21
155.1960917521263
 31
0.0
  0
LINE
  5
C1
100
AcDbEntity
  8
MAINPANEL
  6
CONTINUOUS
100
AcDbLine
 10
13364.45931211232
 20
165.1960917521108
 30
0.0
 11
13364.45931211232
 21
155.1960917521231
 31
0.0
  0
LINE
  5
C2
100
AcDbEntity
  8
MAINPANEL
  6
CONTINUOUS
100
AcDbLine
 10
13373.45931211233
 20
190.1960917521378
 30
0.0
 11
13373.45931211233
 21
155.1960917521228
 31
0.0
  0
LINE
  5
C3
100
AcDbEntity
  8
MAINPANEL
  6
CONTINUOUS
100
AcDbLine
 10
13372.95931211231
 20
190.196091752145
 30
0.0
 11
13373.45931211233
 21
190.1960917521248
 31
0.0
  0
LINE
  5
C4
100
AcDbEntity
  8
MAINPANEL
  6
CONTINUOUS
100
AcDbLine
 10
13364.45931211232
 20
155.1960917521266
 30
0.0
 11
13373.45931211233
 21
155.1960917521263
 31
0.0
  0
LINE
  5
C5
100
AcDbEntity
  8
MAINPANEL
  6
CONTINUOUS
100
AcDbLine
 10
13600.45931211233
 20
190.1960917521343
 30
0.0
 11
13600.45931211232
 21
155.1960917521223
 31
0.0
  0
LINE
  5
C6
100
AcDbEntity
  8
MAINPANEL
  6
CONTINUOUS
100
AcDbLine
 10
13609.45931211232
 20
165.1960917521047
 30
0.0
 11
13609.45931211232
 21
155.196091752122
 31
0.0
  0
LINE
  5
C7
100
AcDbEntity
  8
MAINPANEL
  6
CONTINUOUS
100
AcDbLine
 10
13600.45931211232
 20
155.1960917521266
 30
0.0
 11
13609.45931211233
 21
155.1960917521263
 31
0.0
  0
LINE
  5
C8
100
AcDbEntity
  8
MAINPANEL
  6
CONTINUOUS
100
AcDbLine
 10
13574.45931211232
 20
165.1960917521108
 30
0.0
 11
13574.45931211233
 21
155.1960917521231
 31
0.0
  0
LINE
  5
C9
100
AcDbEntity
  8
MAINPANEL
  6
CONTINUOUS
100
AcDbLine
 10
13583.45931211233
 20
190.1960917521378
 30
0.0
 11
13583.45931211233
 21
155.1960917521228
 31
0.0
  0
LINE
  5
CA
100
AcDbEntity
  8
MAINPANEL
  6
CONTINUOUS
100
AcDbLine
 10
13574.45931211232
 20
155.1960917521266
 30
0.0
 11
13583.45931211233
 21
155.1960917521263
 31
0.0
  0
LINE
  5
CB
100
AcDbEntity
  8
MAINPANEL
  6
CONTINUOUS
100
AcDbLine
 10
13600.45931211232
 20
190.1960917521266
 30
0.0
 11
13600.95931211231
 21
190.1960917521088
 31
0.0
  0
LINE
  5
CC
100
AcDbEntity
  8
MAINPANEL
  6
CONTINUOUS
100
AcDbLine
 10
13582.95931211231
 20
190.196091752145
 30
0.0
 11
13583.45931211233
 21
190.1960917521248
 31
0.0
  0
LINE
  5
CD
100
AcDbEntity
  8
MAINPANEL
  6
CONTINUOUS
100
AcDbLine
 10
13810.45931211233
 20
190.1960917521343
 30
0.0
 11
13810.45931211232
 21
155.1960917521223
 31
0.0
  0
LINE
  5
CE
100
AcDbEntity
  8
MAINPANEL
  6
CONTINUOUS
100
AcDbLine
 10
13819.45931211232
 20
165.1960917521047
 30
0.0
 11
13819.45931211232
 21
155.196091752122
 31
0.0
  0
LINE
  5
CF
100
AcDbEntity
  8
MAINPANEL
  6
CONTINUOUS
100
AcDbLine
 10
13810.45931211232
 20
155.1960917521266
 30
0.0
 11
13819.45931211233
 21
155.1960917521263
 31
0.0
  0
LINE
  5
D0
100
AcDbEntity
  8
MAINPANEL
  6
CONTINUOUS
100
AcDbLine
 10
13784.45931211232
 20
165.1960917521108
 30
0.0
 11
13784.45931211233
 21
155.1960917521231
 31
0.0
  0
LINE
  5
D1
100
AcDbEntity
  8
MAINPANEL
  6
CONTINUOUS
100
AcDbLine
 10
13793.45931211233
 20
190.1960917521378
 30
0.0
 11
13793.45931211233
 21
155.1960917521228
 31
0.0
  0
LINE
  5
D2
100
AcDbEntity
  8
MAINPANEL
  6
CONTINUOUS
100
AcDbLine
 10
13784.45931211232
 20
155.1960917521266
 30
0.0
 11
13793.45931211233
 21
155.1960917521263
 31
0.0
  0
LINE
  5
D3
100
AcDbEntity
  8
MAINPANEL
  6
CONTINUOUS
100
AcDbLine
 10
13810.45931211232
 20
190.1960917521266
 30
0.0
 11
13810.95931211232
 21
190.1960917521088
 31
0.0
  0
LINE
  5
D4
100
AcDbEntity
  8
MAINPANEL
  6
CONTINUOUS
100
AcDbLine
 10
13792.95931211231
 20
190.196091752145
 30
0.0
 11
13793.45931211233
 21
190.1960917521248
 31
0.0
  0
LINE
  5
D5
100
AcDbEntity
  8
MAINPANEL
  6
CONTINUOUS
100
AcDbLine
 10
13945.45931211233
 20
190.1960917521343
 30
0.0
 11
13945.45931211233
 21
155.1960917521223
 31
0.0
  0
LINE
  5
D6
100
AcDbEntity
  8
MAINPANEL
  6
CONTINUOUS
100
AcDbLine
 10
13954.45931211233
 20
165.1960917521047
 30
0.0
 11
13954.45931211233
 21
155.196091752122
 31
0.0
  0
LINE
  5
D7
100
AcDbEntity
  8
MAINPANEL
  6
CONTINUOUS
100
AcDbLine
 10
13945.45931211233
 20
155.1960917521266
 30
0.0
 11
13954.45931211233
 21
155.1960917521263
 31
0.0
  0
LINE
  5
D8
100
AcDbEntity
  8
MAINPANEL
  6
CONTINUOUS
100
AcDbLine
 10
13919.45931211232
 20
165.1960917521108
 30
0.0
 11
13919.45931211233
 21
155.1960917521231
 31
0.0
  0
LINE
  5
D9
100
AcDbEntity
  8
MAINPANEL
  6
CONTINUOUS
100
AcDbLine
 10
13928.45931211233
 20
190.1960917521378
 30
0.0
 11
13928.45931211233
 21
155.1960917521228
 31
0.0
  0
LINE
  5
DA
100
AcDbEntity
  8
MAINPANEL
  6
CONTINUOUS
100
AcDbLine
 10
13919.45931211233
 20
155.1960917521266
 30
0.0
 11
13928.45931211233
 21
155.1960917521263
 31
0.0
  0
LINE
  5
DB
100
AcDbEntity
  8
MAINPANEL
  6
CONTINUOUS
100
AcDbLine
 10
13945.45931211233
 20
190.1960917521266
 30
0.0
 11
13945.95931211232
 21
190.1960917521088
 31
0.0
  0
LINE
  5
DC
100
AcDbEntity
  8
MAINPANEL
  6
CONTINUOUS
100
AcDbLine
 10
13927.95931211231
 20
190.196091752145
 30
0.0
 11
13928.45931211233
 21
190.1960917521248
 31
0.0
  0
LINE
  5
DD
100
AcDbEntity
  8
MAINPANEL
  6
CONTINUOUS
100
AcDbLine
 10
14742.76921622317
 20
-878.3223141470722
 30
0.0
 11
14087.76921622317
 21
-878.3223141470722
 31
0.0
  0
LINE
  5
DE
100
AcDbEntity
  8
MAINPANEL
  6
CONTINUOUS
100
AcDbLine
 10
14742.76921622317
 20
-883.3223141470744
 30
0.0
 11
14087.76921622317
 21
-883.3223141470721
 31
0.0
  0
LINE
  5
DF
100
AcDbEntity
  8
MAINPANEL
  6
CONTINUOUS
100
AcDbLine
 10
14077.76921622317
 20
-878.3223141470704
 30
0.0
 11
14077.76921622317
 21
-868.3223141470739
 31
0.0
  0
LINE
  5
E0
100
AcDbEntity
  8
MAINPANEL
  6
CONTINUOUS
100
AcDbLine
 10
14077.76921622317
 20
-878.3223141470722
 30
0.0
 11
14112.76921622317
 21
-878.322314147074
 31
0.0
  0
ARC
  5
E1
100
AcDbEntity
  8
MAINPANEL
  6
CONTINUOUS
100
AcDbCircle
 10
14087.76921622317
 20
-868.3223141470721
 30
0.0
 40
9.999999999999998
100
AcDbArc
 50
65.00000000000593
 51
180.0
  0
CIRCLE
  5
E2
100
AcDbEntity
  8
MAINPANEL
  6
CONTINUOUS
100
AcDbCircle
 10
14087.76921622317
 20
-868.3223141470721
 30
0.0
 40
4.999999999999999
  0
LINE
  5
E3
100
AcDbEntity
  8
MAINPANEL
  6
CONTINUOUS
100
AcDbLine
 10
14112.76921622317
 20
-878.322314147074
 30
0.0
 11
14112.76921622317
 21
-868.9462264113206
 31
0.0
  0
LINE
  5
E4
100
AcDbEntity
  8
MAINPANEL
  6
CONTINUOUS
100
AcDbLine
 10
14091.99539884058
 20
-859.259236276706
 30
0.0
 11
14112.76921622316
 21
-868.9462264113183
 31
0.0
  0
LINE
  5
E5
100
AcDbEntity
  8
AXES
  6
CONTINUOUS
100
AcDbLine
 10
14087.76921622317
 20
-881.3552323952183
 30
0.0
 11
14087.76921622317
 21
-853.3956617262749
 31
0.0
  0
LINE
  5
E6
100
AcDbEntity
  8
AXES
  6
CONTINUOUS
100
AcDbLine
 10
13149.62066676691
 20
-868.3223141470758
 30
0.0
 11
14147.67511490466
 21
-868.3223141470556
 31
0.0
  0
LINE
  5
E7
100
AcDbEntity
  8
MAINPANEL
  6
CONTINUOUS
100
AcDbLine
 10
13945.45931211231
 20
-878.3223141470722
 30
0.0
 11
13945.45931211231
 21
-858.3223141470694
 31
0.0
  0
LINE
  5
E8
100
AcDbEntity
  8
MAINPANEL
  6
CONTINUOUS
100
AcDbLine
 10
13954.45931211231
 20
-878.3223141470722
 30
0.0
 11
13954.45931211231
 21
-858.3223141470694
 31
0.0
  0
LINE
  5
E9
100
AcDbEntity
  8
MAINPANEL
  6
CONTINUOUS
100
AcDbLine
 10
13945.45931211231
 20
-878.322314147074
 30
0.0
 11
13954.45931211231
 21
-878.3223141470722
 31
0.0
  0
LINE
  5
EA
100
AcDbEntity
  8
MAINPANEL
  6
CONTINUOUS
100
AcDbLine
 10
13945.45931211231
 20
-858.3223141470737
 30
0.0
 11
13954.45931211231
 21
-858.3223141470737
 31
0.0
  0
LINE
  5
EB
100
AcDbEntity
  8
MAINPANEL
  6
CONTINUOUS
100
AcDbLine
 10
13919.45931211233
 20
-868.3223141471243
 30
0.0
 11
13919.45931211231
 21
-858.3223141470703
 31
0.0
  0
LINE
  5
EC
100
AcDbEntity
  8
MAINPANEL
  6
CONTINUOUS
100
AcDbLine
 10
13928.45931211225
 20
-868.3223141471245
 30
0.0
 11
13928.45931211231
 21
-858.32231414707
 31
0.0
  0
LINE
  5
ED
100
AcDbEntity
  8
MAINPANEL
  6
CONTINUOUS
100
AcDbLine
 10
13919.45931211231
 20
-878.322314147074
 30
0.0
 11
13928.45931211232
 21
-878.3223141470722
 31
0.0
  0
LINE
  5
EE
100
AcDbEntity
  8
MAINPANEL
  6
CONTINUOUS
100
AcDbLine
 10
13919.45931211231
 20
-858.3223141470737
 30
0.0
 11
13928.45931211231
 21
-858.3223141470737
 31
0.0
  0
LINE
  5
EF
100
AcDbEntity
  8
MAINPANEL
  6
CONTINUOUS
100
AcDbLine
 10
13810.45931211231
 20
-878.3223141470722
 30
0.0
 11
13810.45931211231
 21
-858.3223141470694
 31
0.0
  0
LINE
  5
F0
100
AcDbEntity
  8
MAINPANEL
  6
CONTINUOUS
100
AcDbLine
 10
13819.45931211231
 20
-878.3223141470722
 30
0.0
 11
13819.45931211231
 21
-858.3223141470694
 31
0.0
  0
LINE
  5
F1
100
AcDbEntity
  8
MAINPANEL
  6
CONTINUOUS
100
AcDbLine
 10
13810.45931211231
 20
-878.322314147074
 30
0.0
 11
13819.45931211231
 21
-878.3223141470722
 31
0.0
  0
LINE
  5
F2
100
AcDbEntity
  8
MAINPANEL
  6
CONTINUOUS
100
AcDbLine
 10
13810.45931211231
 20
-858.3223141470737
 30
0.0
 11
13819.45931211231
 21
-858.3223141470737
 31
0.0
  0
LINE
  5
F3
100
AcDbEntity
  8
MAINPANEL
  6
CONTINUOUS
100
AcDbLine
 10
13784.45931211231
 20
-878.3223141470722
 30
0.0
 11
13784.45931211231
 21
-858.3223141470703
 31
0.0
  0
LINE
  5
F4
100
AcDbEntity
  8
MAINPANEL
  6
CONTINUOUS
100
AcDbLine
 10
13793.45931211231
 20
-878.3223141470722
 30
0.0
 11
13793.45931211231
 21
-858.32231414707
 31
0.0
  0
LINE
  5
F5
100
AcDbEntity
  8
MAINPANEL
  6
CONTINUOUS
100
AcDbLine
 10
13784.45931211231
 20
-878.322314147074
 30
0.0
 11
13793.45931211231
 21
-878.3223141470722
 31
0.0
  0
LINE
  5
F6
100
AcDbEntity
  8
MAINPANEL
  6
CONTINUOUS
100
AcDbLine
 10
13784.45931211231
 20
-858.3223141470737
 30
0.0
 11
13793.45931211231
 21
-858.3223141470737
 31
0.0
  0
LINE
  5
F7
100
AcDbEntity
  8
MAINPANEL
  6
CONTINUOUS
100
AcDbLine
 10
13600.45931211231
 20
-878.3223141470722
 30
0.0
 11
13600.45931211231
 21
-858.3223141470694
 31
0.0
  0
LINE
  5
F8
100
AcDbEntity
  8
MAINPANEL
  6
CONTINUOUS
100
AcDbLine
 10
13609.45931211231
 20
-878.3223141470722
 30
0.0
 11
13609.45931211231
 21
-858.3223141470694
 31
0.0
  0
LINE
  5
F9
100
AcDbEntity
  8
MAINPANEL
  6
CONTINUOUS
100
AcDbLine
 10
13600.45931211231
 20
-878.322314147074
 30
0.0
 11
13609.45931211231
 21
-878.3223141470722
 31
0.0
  0
LINE
  5
FA
100
AcDbEntity
  8
MAINPANEL
  6
CONTINUOUS
100
AcDbLine
 10
13600.45931211231
 20
-858.3223141470737
 30
0.0
 11
13609.45931211231
 21
-858.3223141470737
 31
0.0
  0
LINE
  5
FB
100
AcDbEntity
  8
MAINPANEL
  6
CONTINUOUS
100
AcDbLine
 10
13574.45931211231
 20
-878.3223141470722
 30
0.0
 11
13574.45931211231
 21
-858.3223141470703
 31
0.0
  0
LINE
  5
FC
100
AcDbEntity
  8
MAINPANEL
  6
CONTINUOUS
100
AcDbLine
 10
13583.45931211231
 20
-878.3223141470722
 30
0.0
 11
13583.45931211231
 21
-858.32231414707
 31
0.0
  0
LINE
  5
FD
100
AcDbEntity
  8
MAINPANEL
  6
CONTINUOUS
100
AcDbLine
 10
13574.45931211231
 20
-878.322314147074
 30
0.0
 11
13583.45931211231
 21
-878.3223141470722
 31
0.0
  0
LINE
  5
FE
100
AcDbEntity
  8
MAINPANEL
  6
CONTINUOUS
100
AcDbLine
 10
13574.45931211231
 20
-858.3223141470737
 30
0.0
 11
13583.45931211231
 21
-858.3223141470737
 31
0.0
  0
LINE
  5
FF
100
AcDbEntity
  8
MAINPANEL
  6
CONTINUOUS
100
AcDbLine
 10
13390.45931211231
 20
-878.3223141470722
 30
0.0
 11
13390.45931211231
 21
-858.3223141470694
 31
0.0
  0
LINE
  5
100
100
AcDbEntity
  8
MAINPANEL
  6
CONTINUOUS
100
AcDbLine
 10
13399.45931211231
 20
-878.3223141470722
 30
0.0
 11
13399.4593121123
 21
-858.3223141470694
 31
0.0
  0
LINE
  5
101
100
AcDbEntity
  8
MAINPANEL
  6
CONTINUOUS
100
AcDbLine
 10
13390.45931211231
 20
-878.322314147074
 30
0.0
 11
13399.45931211231
 21
-878.3223141470722
 31
0.0
  0
LINE
  5
102
100
AcDbEntity
  8
MAINPANEL
  6
CONTINUOUS
100
AcDbLine
 10
13390.45931211231
 20
-858.3223141470737
 30
0.0
 11
13399.45931211231
 21
-858.3223141470737
 31
0.0
  0
LINE
  5
103
100
AcDbEntity
  8
MAINPANEL
  6
CONTINUOUS
100
AcDbLine
 10
13364.45931211231
 20
-878.3223141470722
 30
0.0
 11
13364.45931211231
 21
-858.3223141470703
 31
0.0
  0
LINE
  5
104
100
AcDbEntity
  8
MAINPANEL
  6
CONTINUOUS
100
AcDbLine
 10
13373.45931211231
 20
-878.3223141470722
 30
0.0
 11
13373.45931211231
 21
-858.32231414707
 31
0.0
  0
LINE
  5
105
100
AcDbEntity
  8
MAINPANEL
  6
CONTINUOUS
100
AcDbLine
 10
13364.45931211231
 20
-878.322314147074
 30
0.0
 11
13373.45931211231
 21
-878.3223141470722
 31
0.0
  0
LINE
  5
106
100
AcDbEntity
  8
MAINPANEL
  6
CONTINUOUS
100
AcDbLine
 10
13364.45931211231
 20
-858.3223141470737
 30
0.0
 11
13373.45931211231
 21
-858.3223141470737
 31
0.0
  0
LINE
  5
107
100
AcDbEntity
  8
MAINPANEL
  6
CONTINUOUS
100
AcDbLine
 10
13356.95931211231
 20
790.1960917521217
 30
0.0
 11
13931.95931211232
 21
790.1960917521212
 31
0.0
  0
LINE
  5
108
100
AcDbEntity
  8
MAINPANEL
  6
CONTINUOUS
100
AcDbLine
 10
13931.95931211232
 20
790.1960917521217
 30
0.0
 11
13931.95931211232
 21
205.1960917521416
 31
0.0
  0
LINE
  5
109
100
AcDbEntity
  8
MAINPANEL
  6
CONTINUOUS
100
AcDbLine
 10
13931.95931211232
 20
790.1960917521217
 30
0.0
 11
13961.95931211231
 21
820.1960917521216
 31
0.0
  0
CIRCLE
  5
10A
100
AcDbEntity
  8
MAINPANEL
  6
CONTINUOUS
100
AcDbCircle
 10
13371.95931211231
 20
800.1960917521218
 30
0.0
 40
4.999999999999999
  0
CIRCLE
  5
10B
100
AcDbEntity
  8
MAINPANEL
  6
CONTINUOUS
100
AcDbCircle
 10
13481.95931211232
 20
800.1960917521218
 30
0.0
 40
4.999999999999999
  0
CIRCLE
  5
10C
100
AcDbEntity
  8
MAINPANEL
  6
CONTINUOUS
100
AcDbCircle
 10
13591.95931211232
 20
800.1960917521218
 30
0.0
 40
4.999999999999999
  0
CIRCLE
  5
10D
100
AcDbEntity
  8
MAINPANEL
  6
CONTINUOUS
100
AcDbCircle
 10
13701.95931211232
 20
800.1960917521218
 30
0.0
 40
4.999999999999999
  0
CIRCLE
  5
10E
100
AcDbEntity
  8
MAINPANEL
  6
CONTINUOUS
100
AcDbCircle
 10
13811.95931211232
 20
800.1960917521218
 30
0.0
 40
4.999999999999999
  0
CIRCLE
  5
10F
100
AcDbEntity
  8
MAINPANEL
  6
CONTINUOUS
100
AcDbCircle
 10
13921.95931211232
 20
800.1960917521218
 30
0.0
 40
4.999999999999999
  0
CIRCLE
  5
110
100
AcDbEntity
  8
MAINPANEL
  6
CONTINUOUS
100
AcDbCircle
 10
13371.95931211231
 20
-801.3965918682513
 30
0.0
 40
3.5
  0
CIRCLE
  5
111
100
AcDbEntity
  8
MAINPANEL
  6
CONTINUOUS
100
AcDbCircle
 10
13481.95931211232
 20
-801.3965918682513
 30
0.0
 40
3.5
  0
CIRCLE
  5
112
100
AcDbEntity
  8
MAINPANEL
  6
CONTINUOUS
100
AcDbCircle
 10
13591.95931211232
 20
-801.3965918682513
 30
0.0
 40
3.5
  0
CIRCLE
  5
113
100
AcDbEntity
  8
MAINPANEL
  6
CONTINUOUS
100
AcDbCircle
 10
13701.95931211232
 20
-801.3965918682513
 30
0.0
 40
3.5
  0
CIRCLE
  5
114
100
AcDbEntity
  8
MAINPANEL
  6
CONTINUOUS
100
AcDbCircle
 10
13811.95931211232
 20
-801.3965918682513
 30
0.0
 40
3.5
  0
CIRCLE
  5
115
100
AcDbEntity
  8
MAINPANEL
  6
CONTINUOUS
100
AcDbCircle
 10
13921.95931211232
 20
-801.3965918682513
 30
0.0
 40
3.5
  0
LINE
  5
116
100
AcDbEntity
  8
MAINPANEL
  6
CONTINUOUS
100
AcDbLine
 10
13356.95931211231
 20
818.1960917521216
 30
0.0
 11
13959.95931211228
 21
818.1960917521209
 31
0.0
  0
LINE
  5
117
100
AcDbEntity
  8
MAINPANEL
  6
CONTINUOUS
100
AcDbLine
 10
13959.95931211231
 20
818.1960917521548
 30
0.0
 11
13959.95931211232
 21
205.1960917521415
 31
0.0
  0
LINE
  5
118
100
AcDbEntity
  8
MAINPANEL
  6
CONTINUOUS
100
AcDbLine
 10
13931.95931211232
 20
205.1960917521416
 30
0.0
 11
13961.95931211231
 21
205.1960917521217
 31
0.0
  0
LINE
  5
119
100
AcDbEntity
  8
MAINPANEL
  6
CONTINUOUS
100
AcDbLine
 10
12576.14940800146
 20
-878.3223141470722
 30
0.0
 11
13231.14940800146
 21
-878.3223141470722
 31
0.0
  0
LINE
  5
11A
100
AcDbEntity
  8
MAINPANEL
  6
CONTINUOUS
100
AcDbLine
 10
12576.14940800146
 20
-903.3223141470736
 30
0.0
 11
13191.14940800146
 21
-903.3223141470719
 31
0.0
  0
LINE
  5
11B
100
AcDbEntity
  8
MAINPANEL
  6
CONTINUOUS
100
AcDbLine
 10
13231.14940800145
 20
-883.3223141470714
 30
0.0
 11
13231.14940800146
 21
-878.3223141470722
 31
0.0
  0
LINE
  5
11C
100
AcDbEntity
  8
MAINPANEL
  6
CONTINUOUS
100
AcDbLine
 10
12576.14940800146
 20
-878.3223141470722
 30
0.0
 11
12576.14940800146
 21
-903.3223141470724
 31
0.0
  0
LINE
  5
11D
100
AcDbEntity
  8
MAINPANEL
  6
CONTINUOUS
100
AcDbLine
 10
12576.14940800146
 20
-883.3223141470744
 30
0.0
 11
13231.14940800146
 21
-883.3223141470721
 31
0.0
  0
LINE
  5
11E
100
AcDbEntity
  8
MAINPANEL
  6
CONTINUOUS
100
AcDbLine
 10
13241.14940800146
 20
-878.3223141470704
 30
0.0
 11
13241.14940800146
 21
-868.3223141470739
 31
0.0
  0
LINE
  5
11F
100
AcDbEntity
  8
MAINPANEL
  6
CONTINUOUS
100
AcDbLine
 10
13241.14940800146
 20
-878.3223141470722
 30
0.0
 11
13206.14940800146
 21
-878.322314147074
 31
0.0
  0
ARC
  5
120
100
AcDbEntity
  8
MAINPANEL
  6
CONTINUOUS
100
AcDbCircle
 10
13231.14940800146
 20
-868.3223141470721
 30
0.0
 40
9.999999999999998
100
AcDbArc
 50
0.0
 51
114.999999999994
  0
CIRCLE
  5
121
100
AcDbEntity
  8
MAINPANEL
  6
CONTINUOUS
100
AcDbCircle
 10
13231.14940800146
 20
-868.3223141470721
 30
0.0
 40
4.999999999999999
  0
LINE
  5
122
100
AcDbEntity
  8
MAINPANEL
  6
CONTINUOUS
100
AcDbLine
 10
13206.14940800146
 20
-878.322314147074
 30
0.0
 11
13206.14940800146
 21
-868.9462264113206
 31
0.0
  0
LINE
  5
123
100
AcDbEntity
  8
MAINPANEL
  6
CONTINUOUS
100
AcDbLine
 10
13226.92322538405
 20
-859.259236276706
 30
0.0
 11
13206.14940800147
 21
-868.9462264113183
 31
0.0
  0
LINE
  5
124
100
AcDbEntity
  8
MAINPANEL
  6
CONTINUOUS
100
AcDbLine
 10
13191.14940800146
 20
-903.3223141470724
 30
0.0
 11
13191.14940800149
 21
-883.3223141470718
 31
0.0
  0
LINE
  5
125
100
AcDbEntity
  8
MAINPANEL
  6
CONTINUOUS
100
AcDbLine
 10
14742.76921622317
 20
-883.3223141470744
 30
0.0
 11
14742.76921622317
 21
-878.3223141470722
 31
0.0
  0
LINE
  5
126
100
AcDbEntity
  8
MAINPANEL
  6
CONTINUOUS
100
AcDbLine
 10
14087.76921622317
 20
-883.3223141470721
 30
0.0
 11
14087.76921622317
 21
-878.3223141470724
 31
0.0
  0
LINE
  5
127
100
AcDbEntity
  8
AXES
  6
CONTINUOUS
100
AcDbLine
 10
13231.14940800146
 20
-881.3552323952183
 30
0.0
 11
13231.14940800146
 21
-853.3956617262749
 31
0.0
  0
LINE
  5
128
100
AcDbEntity
  8
AXES
  6
CONTINUOUS
100
AcDbLine
 10
13936.95931211233
 20
-897.5871861205213
 30
0.0
 11
13936.95931211233
 21
-840.6611507977087
 31
0.0
  0
LINE
  5
129
100
AcDbEntity
  8
AXES
  6
CONTINUOUS
100
AcDbLine
 10
13801.95931211233
 20
-897.5871861205213
 30
0.0
 11
13801.95931211233
 21
-840.6611507977087
 31
0.0
  0
LINE
  5
12A
100
AcDbEntity
  8
AXES
  6
CONTINUOUS
100
AcDbLine
 10
13591.95931211233
 20
-897.5871861205213
 30
0.0
 11
13591.95931211233
 21
-840.6611507977087
 31
0.0
  0
LINE
  5
12B
100
AcDbEntity
  8
AXES
  6
CONTINUOUS
100
AcDbLine
 10
13381.95931211231
 20
-878.3223141470722
 30
0.0
 11
13381.95931211233
 21
-840.6611507977087
 31
0.0
  0
LINE
  5
12C
100
AcDbEntity
  8
MAINPANEL
  6
CONTINUOUS
100
AcDbLine
 10
14742.76921622317
 20
-883.3223141470744
 30
0.0
 11
14742.76921622317
 21
-903.3223141470745
 31
0.0
  0
LINE
  5
12D
100
AcDbEntity
  8
MAINPANEL
  6
CONTINUOUS
100
AcDbLine
 10
12863.14940800145
 20
-868.3223141470724
 30
0.0
 11
12903.14940800145
 21
-868.3223141470724
 31
0.0
  0
LINE
  5
12E
100
AcDbEntity
  8
MAINPANEL
  6
CONTINUOUS
100
AcDbLine
 10
12903.14940800145
 20
-868.3223141470724
 30
0.0
 11
12903.14940800145
 21
-878.3223141470724
 31
0.0
  0
LINE
  5
12F
100
AcDbEntity
  8
MAINPANEL
  6
CONTINUOUS
100
AcDbLine
 10
12863.14940800145
 20
-868.3223141470724
 30
0.0
 11
12863.14940800145
 21
-878.3223141470724
 31
0.0
  0
LINE
  5
130
100
AcDbEntity
  8
AXES
  6
CONTINUOUS
100
AcDbLine
 10
12883.14940800145
 20
-856.6925111131332
 30
0.0
 11
12883.14940800147
 21
-894.3549877793271
 31
0.0
  0
LINE
  5
131
100
AcDbEntity
  8
MAINPANEL
  6
CONTINUOUS
100
AcDbLine
 10
12899.6494080015
 20
-872.3223141470731
 30
0.0
 11
12899.64940800145
 21
-878.3223141470724
 31
0.0
  0
LINE
  5
132
100
AcDbEntity
  8
MAINPANEL
  6
CONTINUOUS
100
AcDbLine
 10
12866.64940800138
 20
-872.3223141470683
 30
0.0
 11
12866.64940800145
 21
-878.3223141470724
 31
0.0
  0
LINE
  5
133
100
AcDbEntity
  8
MAINPANEL
  6
CONTINUOUS
100
AcDbLine
 10
12866.64940800138
 20
-872.3223141470672
 30
0.0
 11
12899.64940800148
 21
-872.3223141470731
 31
0.0
  0
LINE
  5
134
100
AcDbEntity
  8
MAINPANEL
  6
CONTINUOUS
100
AcDbLine
 10
12866.64940800145
 20
-878.3223141470724
 30
0.0
 11
12863.14940800145
 21
-878.3223141470724
 31
0.0
  0
LINE
  5
135
100
AcDbEntity
  8
MAINPANEL
  6
CONTINUOUS
100
AcDbLine
 10
12903.14940800145
 20
-878.3223141470724
 30
0.0
 11
12899.64940800145
 21
-878.3223141470724
 31
0.0
  0
LWPOLYLINE
  5
136
100
AcDbEntity
  8
MAINPANEL
  6
CONTINUOUS
100
AcDbPolyline
 90
        4
 70
     1
 43
0.0
 10
13919.3549046341
 20
-534.3965918682516
 10
13929.3549046341
 20
-534.3965918682516
 10
13929.3549046341
 20
-494.3965918682517
 10
13919.3549046341
 20
-494.3965918682517
  0
LWPOLYLINE
  5
137
100
AcDbEntity
  8
MAINPANEL
  6
CONTINUOUS
100
AcDbPolyline
 90
        4
 70
     0
 43
0.0
 10
13929.35490463409
 20
-878.3223141470722
 10
13929.3549046341
 20
-868.3223141470698
 10
13919.3549046341
 20
-868.3223141470698
 10
13919.35490463412
 20
-878.3223141470722
  0
LINE
  5
138
100
AcDbEntity
  8
AXES
  6
CONTINUOUS
100
AcDbLine
 10
13391.95931211232
 20
-925.6372814176158
 30
0.0
 11
13391.9593121123
 21
-812.7308229549303
 31
0.0
  0
LINE
  5
139
100
AcDbEntity
  8
MAINPANEL
  6
CONTINUOUS
100
AcDbLine
 10
13404.95931211234
 20
-903.3223141470729
 30
0.0
 11
13404.95931211234
 21
-883.3223141470726
 31
0.0
  0
LINE
  5
13A
100
AcDbEntity
  8
MAINPANEL
  6
CONTINUOUS
100
AcDbLine
 10
13378.9593121123
 20
-903.3223141470729
 30
0.0
 11
13378.95931211232
 21
-883.3223141470726
 31
0.0
  0
LINE
  5
13B
100
AcDbEntity
  8
MAINPANEL
  6
CONTINUOUS
100
AcDbLine
 10
13382.95931211222
 20
-836.3965918682515
 30
0.0
 11
13400.95931211235
 21
-836.3965918682515
 31
0.0
  0
LINE
  5
13C
100
AcDbEntity
  8
MAINPANEL
  6
CONTINUOUS
100
AcDbLine
 10
13404.95931211234
 20
-832.39659186825
 30
0.0
 11
13404.95931211234
 21
-828.3965918682161
 31
0.0
  0
ARC
  5
13D
100
AcDbEntity
  8
MAINPANEL
  6
CONTINUOUS
100
AcDbCircle
 10
13400.95931211235
 20
-832.3965918682512
 30
0.0
 40
3.999999999999999
100
AcDbArc
 50
270.0
 51
0.0000000000181455
  0
LINE
  5
13E
100
AcDbEntity
  8
MAINPANEL
  6
CONTINUOUS
100
AcDbLine
 10
13382.95931211222
 20
-834.8965918682516
 30
0.0
 11
13400.95931211237
 21
-834.8965918682516
 31
0.0
  0
LINE
  5
13F
100
AcDbEntity
  8
MAINPANEL
  6
CONTINUOUS
100
AcDbLine
 10
13403.45931211234
 20
-832.39659186825
 30
0.0
 11
13403.45931211234
 21
-828.3965918682556
 31
0.0
  0
ARC
  5
140
100
AcDbEntity
  8
MAINPANEL
  6
CONTINUOUS
100
AcDbCircle
 10
13400.95931211237
 20
-832.3965918682828
 30
0.0
 40
2.499999999999999
100
AcDbArc
 50
270.0
 51
0.0000000000289369
  0
ARC
  5
141
100
AcDbEntity
  8
MAINPANEL
  6
CONTINUOUS
100
AcDbCircle
 10
13410.45931211239
 20
-828.3965918682522
 30
0.0
 40
7.0
100
AcDbArc
 50
90.0000000000001
 51
180.0000000000295
  0
LWPOLYLINE
  5
142
100
AcDbEntity
  8
MAINPANEL
  6
CONTINUOUS
100
AcDbPolyline
 90
        2
 70
     0
 43
0.0
 10
13424.95931211232
 20
-822.8965918682515
 10
13424.95931211236
 20
-821.3965918682514
  0
ARC
  5
143
100
AcDbEntity
  8
MAINPANEL
  6
CONTINUOUS
100
AcDbCircle
 10
13410.45931211235
 20
-828.3965918682133
 30
0.0
 40
5.5
100
AcDbArc
 50
90.00000000000005
 51
180.00000000003
  0
LINE
  5
144
100
AcDbEntity
  8
MAINPANEL
  6
CONTINUOUS
100
AcDbLine
 10
13424.95931211249
 20
-822.8965918683064
 30
0.0
 11
13410.45931211235
 21
-822.8965918682515
 31
0.0
  0
LINE
  5
145
100
AcDbEntity
  8
MAINPANEL
  6
CONTINUOUS
100
AcDbLine
 10
13378.95931211227
 20
-832.3965918682528
 30
0.0
 11
13378.95931211227
 21
-828.396591868219
 31
0.0
  0
ARC
  5
146
100
AcDbEntity
  8
MAINPANEL
  6
CONTINUOUS
100
AcDbCircle
 10
13382.95931211226
 20
-832.3965918682528
 30
0.0
 40
3.999999999999999
100
AcDbArc
 50
179.9999999999936
 51
270.0000000000116
  0
LINE
  5
147
100
AcDbEntity
  8
MAINPANEL
  6
CONTINUOUS
100
AcDbLine
 10
13380.45931211227
 20
-832.3965918682525
 30
0.0
 11
13380.45931211228
 21
-828.396591868258
 31
0.0
  0
ARC
  5
148
100
AcDbEntity
  8
MAINPANEL
  6
CONTINUOUS
100
AcDbCircle
 10
13382.95931211224
 20
-832.3965918682848
 30
0.0
 40
2.499999999999999
100
AcDbArc
 50
179.9999999999827
 51
270.0000000000116
  0
ARC
  5
149
100
AcDbEntity
  8
MAINPANEL
  6
CONTINUOUS
100
AcDbCircle
 10
13373.45931211223
 20
-828.3965918682559
 30
0.0
 40
7.0
100
AcDbArc
 50
359.9999999999822
 51
90.00000000001161
  0
LWPOLYLINE
  5
14A
100
AcDbEntity
  8
MAINPANEL
  6
CONTINUOUS
100
AcDbPolyline
 90
        2
 70
     0
 43
0.0
 10
13358.95931211229
 20
-822.8965918682586
 10
13358.95931211224
 20
-821.3965918682587
  0
ARC
  5
14B
100
AcDbEntity
  8
MAINPANEL
  6
CONTINUOUS
100
AcDbCircle
 10
13373.45931211227
 20
-828.396591868217
 30
0.0
 40
5.5
100
AcDbArc
 50
359.9999999999816
 51
90.00000000001167
  0
LINE
  5
14C
100
AcDbEntity
  8
MAINPANEL
  6
CONTINUOUS
100
AcDbLine
 10
13358.95931211273
 20
-822.8965918682316
 30
0.0
 11
13373.45931211226
 21
-822.8965918682552
 31
0.0
  0
LINE
  5
14D
100
AcDbEntity
  8
MAINPANEL
  6
CONTINUOUS
100
AcDbLine
 10
14757.76921622321
 20
-885.7027283866928
 30
0.0
 11
14757.76921622313
 21
-900.9418999073441
 31
0.0
  0
LINE
  5
14E
100
AcDbEntity
  8
MAINPANEL
  6
CONTINUOUS
100
AcDbLine
 10
14744.26921622319
 20
-883.3223141470748
 30
0.0
 11
14744.26921622317
 21
-903.3223141470731
 31
0.0
  0
LINE
  5
14F
100
AcDbEntity
  8
MAINPANEL
  6
CONTINUOUS
100
AcDbLine
 10
14744.26921622317
 20
-903.3223141470731
 30
0.0
 11
14742.76921622317
 21
-903.3223141470731
 31
0.0
  0
LINE
  5
150
100
AcDbEntity
  8
MAINPANEL
  6
CONTINUOUS
100
AcDbLine
 10
14744.26921622319
 20
-883.3223141470748
 30
0.0
 11
14742.76921622317
 21
-883.3223141470748
 31
0.0
  0
LINE
  5
151
100
AcDbEntity
  8
MAINPANEL
  6
CONTINUOUS
100
AcDbLine
 10
14744.26921622317
 20
-903.3223141470731
 30
0.0
 11
14757.76921622313
 21
-900.9418999074005
 31
0.0
  0
LINE
  5
152
100
AcDbEntity
  8
MAINPANEL
  6
CONTINUOUS
100
AcDbLine
 10
14744.26921622317
 20
-883.3223141470748
 30
0.0
 11
14757.76921622313
 21
-885.7027283867473
 31
0.0
  0
LINE
  5
153
100
AcDbEntity
  8
MAINPANEL
  6
CONTINUOUS
100
AcDbLine
 10
13378.95931211228
 20
-885.7027283867155
 30
0.0
 11
13404.95931211226
 21
-885.7027283866919
 31
0.0
  0
LINE
  5
154
100
AcDbEntity
  8
MAINPANEL
  6
CONTINUOUS
100
AcDbLine
 10
13378.95931211226
 20
-900.9418999071247
 30
0.0
 11
13404.95931211227
 21
-900.941899907343
 31
0.0
  0
LINE
  5
155
100
AcDbEntity
  8
MAINPANEL
  6
CONTINUOUS
100
AcDbLine
 10
13380.45931211232
 20
-885.7027283866424
 30
0.0
 11
13380.45931211232
 21
-883.3223141470726
 31
0.0
  0
LINE
  5
156
100
AcDbEntity
  8
MAINPANEL
  6
CONTINUOUS
100
AcDbLine
 10
13403.4593121123
 20
-885.7027283866401
 30
0.0
 11
13403.4593121123
 21
-883.3223141470703
 31
0.0
  0
LINE
  5
157
100
AcDbEntity
  8
MAINPANEL
  6
CONTINUOUS
100
AcDbLine
 10
13403.4593121123
 20
-900.9418999075055
 30
0.0
 11
13403.4593121123
 21
-903.3223141470752
 31
0.0
  0
LINE
  5
158
100
AcDbEntity
  8
MAINPANEL
  6
CONTINUOUS
100
AcDbLine
 10
13380.45931211232
 20
-900.9418999075032
 30
0.0
 11
13380.45931211232
 21
-903.3223141470728
 31
0.0
  0
TEXT
  5
159
100
AcDbEntity
  8
COMMENTS
  6
CONTINUOUS
100
AcDbText
 10
14256.43738656693
 20
88.79350274837307
 30
0.0
 40
46.12819597561585
  1
Front left main panel
 41
0.6000000000000001
  7
ARIAL
 11
14256.43738656693
 21
88.79350274837307
 31
0.0
100
AcDbText
 73
     1
  0
TEXT
  5
15A
100
AcDbEntity
  8
COMMENTS
  6
CONTINUOUS
100
AcDbText
 10
14256.43738656693
 20
19.60120878494927
 30
-69.19229396342379
 40
46.12819597561585
  1
Standard pattern
 41
0.6000000000000001
  7
ARIAL
 11
14256.43738656693
 21
19.60120878494927
 31
-69.19229396342379
100
AcDbText
 73
     1
  0
TEXT
  5
15B
100
AcDbEntity
  8
COMMENTS
  6
CONTINUOUS
100
AcDbText
 10
14256.43738656693
 20
-49.59108517847451
 30
-138.3845879268475
 40
46.12819597561585
  1
Unassembled
 41
0.6000000000000001
  7
ARIAL
 11
14256.43738656693
 21
-49.59108517847451
 31
-138.3845879268475
100
AcDbText
 73
     1
  0
CIRCLE
  5
15C
100
AcDbEntity
  8
MAINPANEL
  6
CONTINUOUS
100
AcDbCircle
 10
13941.95931211232
 20
-784.3965918682455
 30
0.0
 40
4.999999999999999
  0
CIRCLE
  5
15D
100
AcDbEntity
  8
MAINPANEL
  6
CONTINUOUS
100
AcDbCircle
 10
13941.95931211232
 20
-674.3965918682456
 30
0.0
 40
4.999999999999999
  0
CIRCLE
  5
15E
100
AcDbEntity
  8
MAINPANEL
  6
CONTINUOUS
100
AcDbCircle
 10
13941.95931211232
 20
-564.3965918682457
 30
0.0
 40
4.999999999999999
  0
CIRCLE
  5
15F
100
AcDbEntity
  8
MAINPANEL
  6
CONTINUOUS
100
AcDbCircle
 10
13941.95931211232
 20
-464.3965918682456
 30
0.0
 40
4.999999999999999
  0
CIRCLE
  5
160
100
AcDbEntity
  8
MAINPANEL
  6
CONTINUOUS
100
AcDbCircle
 10
13941.95931211232
 20
-354.3965918682458
 30
0.0
 40
4.999999999999999
  0
CIRCLE
  5
161
100
AcDbEntity
  8
MAINPANEL
  6
CONTINUOUS
100
AcDbCircle
 10
13941.95931211232
 20
-244.3965918682459
 30
0.0
 40
4.999999999999999
  0
CIRCLE
  5
162
100
AcDbEntity
  8
MAINPANEL
  6
CONTINUOUS
100
AcDbCircle
 10
13941.95931211232
 20
783.1960917521156
 30
0.0
 40
4.999999999999999
  0
CIRCLE
  5
163
100
AcDbEntity
  8
MAINPANEL
  6
CONTINUOUS
100
AcDbCircle
 10
13941.95931211232
 20
673.1960917521157
 30
0.0
 40
4.999999999999999
  0
CIRCLE
  5
164
100
AcDbEntity
  8
MAINPANEL
  6
CONTINUOUS
100
AcDbCircle
 10
13941.95931211232
 20
563.1960917521158
 30
0.0
 40
4.999999999999999
  0
CIRCLE
  5
165
100
AcDbEntity
  8
MAINPANEL
  6
CONTINUOUS
100
AcDbCircle
 10
13941.95931211232
 20
463.1960917521159
 30
0.0
 40
4.999999999999999
  0
CIRCLE
  5
166
100
AcDbEntity
  8
MAINPANEL
  6
CONTINUOUS
100
AcDbCircle
 10
13941.95931211232
 20
353.196091752116
 30
0.0
 40
4.999999999999999
  0
CIRCLE
  5
167
100
AcDbEntity
  8
MAINPANEL
  6
CONTINUOUS
100
AcDbCircle
 10
13941.95931211232
 20
243.1960917521161
 30
0.0
 40
4.999999999999999
  0
LINE
  5
168
100
AcDbEntity
  8
MAINPANEL
  6
CONTINUOUS
100
AcDbLine
 10
13382.95931211222
 20
835.1960917521195
 30
0.0
 11
13400.95931211235
 21
835.1960917521195
 31
0.0
  0
LINE
  5
169
100
AcDbEntity
  8
MAINPANEL
  6
CONTINUOUS
100
AcDbLine
 10
13404.95931211234
 20
831.1960917521181
 30
0.0
 11
13404.95931211234
 21
827.1960917520841
 31
0.0
  0
ARC
  5
16A
100
AcDbEntity
  8
MAINPANEL
  6
CONTINUOUS
100
AcDbCircle
 10
13400.95931211235
 20
831.1960917521192
 30
0.0
 40
3.999999999999999
100
AcDbArc
 50
359.9999999999818
 51
89.99999999999994
  0
LINE
  5
16B
100
AcDbEntity
  8
MAINPANEL
  6
CONTINUOUS
100
AcDbLine
 10
13382.95931211222
 20
833.6960917521194
 30
0.0
 11
13400.95931211237
 21
833.6960917521194
 31
0.0
  0
LINE
  5
16C
100
AcDbEntity
  8
MAINPANEL
  6
CONTINUOUS
100
AcDbLine
 10
13403.45931211234
 20
831.1960917521181
 30
0.0
 11
13403.45931211234
 21
827.1960917521237
 31
0.0
  0
ARC
  5
16D
100
AcDbEntity
  8
MAINPANEL
  6
CONTINUOUS
100
AcDbCircle
 10
13400.95931211237
 20
831.196091752151
 30
0.0
 40
2.499999999999999
100
AcDbArc
 50
359.999999999971
 51
89.99999999999994
  0
ARC
  5
16E
100
AcDbEntity
  8
MAINPANEL
  6
CONTINUOUS
100
AcDbCircle
 10
13410.45931211239
 20
827.19609175212
 30
0.0
 40
7.0
100
AcDbArc
 50
179.9999999999704
 51
269.9999999999998
  0
LWPOLYLINE
  5
16F
100
AcDbEntity
  8
MAINPANEL
  6
CONTINUOUS
100
AcDbPolyline
 90
        2
 70
     0
 43
0.0
 10
13424.95931211232
 20
821.6960917521195
 10
13424.95931211236
 20
820.1960917521194
  0
ARC
  5
170
100
AcDbEntity
  8
MAINPANEL
  6
CONTINUOUS
100
AcDbCircle
 10
13410.45931211235
 20
827.1960917520813
 30
0.0
 40
5.5
100
AcDbArc
 50
179.9999999999699
 51
269.9999999999999
  0
LINE
  5
171
100
AcDbEntity
  8
MAINPANEL
  6
CONTINUOUS
100
AcDbLine
 10
13424.95931211276
 20
821.6960917521474
 30
0.0
 11
13410.45931211235
 21
821.6960917521195
 31
0.0
  0
LINE
  5
172
100
AcDbEntity
  8
MAINPANEL
  6
CONTINUOUS
100
AcDbLine
 10
13378.95931211227
 20
831.1960917521208
 30
0.0
 11
13378.95931211227
 21
827.1960917520868
 31
0.0
  0
ARC
  5
173
100
AcDbEntity
  8
MAINPANEL
  6
CONTINUOUS
100
AcDbCircle
 10
13382.95931211226
 20
831.196091752121
 30
0.0
 40
3.999999999999999
100
AcDbArc
 50
89.99999999998829
 51
180.0000000000063
  0
LINE
  5
174
100
AcDbEntity
  8
MAINPANEL
  6
CONTINUOUS
100
AcDbLine
 10
13380.45931211227
 20
831.1960917521204
 30
0.0
 11
13380.45931211228
 21
827.196091752126
 31
0.0
  0
ARC
  5
175
100
AcDbEntity
  8
MAINPANEL
  6
CONTINUOUS
100
AcDbCircle
 10
13382.95931211224
 20
831.1960917521528
 30
0.0
 40
2.499999999999999
100
AcDbArc
 50
89.99999999998829
 51
180.0000000000172
  0
ARC
  5
176
100
AcDbEntity
  8
MAINPANEL
  6
CONTINUOUS
100
AcDbCircle
 10
13373.45931211223
 20
827.1960917521239
 30
0.0
 40
7.0
100
AcDbArc
 50
269.9999999999884
 51
0.0000000000178257
  0
LWPOLYLINE
  5
177
100
AcDbEntity
  8
MAINPANEL
  6
CONTINUOUS
100
AcDbPolyline
 90
        2
 70
     0
 43
0.0
 10
13358.95931211229
 20
821.6960917521268
 10
13358.95931211224
 20
820.1960917521267
  0
ARC
  5
178
100
AcDbEntity
  8
MAINPANEL
  6
CONTINUOUS
100
AcDbCircle
 10
13373.45931211227
 20
827.196091752085
 30
0.0
 40
5.5
100
AcDbArc
 50
269.9999999999883
 51
0.0000000000183853
  0
LINE
  5
179
100
AcDbEntity
  8
MAINPANEL
  6
CONTINUOUS
100
AcDbLine
 10
13358.95931211292
 20
821.6960917520736
 30
0.0
 11
13373.45931211226
 21
821.6960917521234
 31
0.0
  0
LWPOLYLINE
  5
17A
100
AcDbEntity
  8
MAINPANEL
  6
CONTINUOUS
100
AcDbPolyline
 90
        4
 70
     1
 43
0.0
 10
13358.95931211459
 20
-883.3223141470705
 10
13424.95931211002
 20
-883.3223141470705
 10
13424.95931211002
 20
-903.322314147072
 10
13358.95931211459
 20
-903.322314147072
  0
LINE
  5
17B
100
AcDbEntity
  8
MAINPANEL
  6
CONTINUOUS
100
AcDbLine
 10
14713.76921622317
 20
-885.3223141470815
 30
0.0
 11
14738.76921622318
 21
-885.3223141470815
 31
0.0
  0
LINE
  5
17C
100
AcDbEntity
  8
MAINPANEL
  6
CONTINUOUS
100
AcDbLine
 10
14740.76921622319
 20
-902.3223141470795
 30
0.0
 11
14740.76921622319
 21
-887.3223141471276
 31
0.0
  0
ARC
  5
17D
100
AcDbEntity
  8
MAINPANEL
  6
CONTINUOUS
100
AcDbCircle
 10
14741.76921622319
 20
-902.3223141470781
 30
0.0
 40
1.000000000001216
100
AcDbArc
 50
180.0000000000827
 51
0.0
  0
ARC
  5
17E
100
AcDbEntity
  8
MAINPANEL
  6
CONTINUOUS
100
AcDbCircle
 10
14713.76921622317
 20
-884.3223141470783
 30
0.0
 40
1.000000000003382
100
AcDbArc
 50
90.00000000000005
 51
270.0
  0
ARC
  5
17F
100
AcDbEntity
  8
MAINPANEL
  6
CONTINUOUS
100
AcDbCircle
 10
14738.76921622318
 20
-887.3223141471269
 30
0.0
 40
1.999999999999999
100
AcDbArc
 50
0.0
 51
90.00000000000005
  0
ARC
  5
180
100
AcDbEntity
  8
MAINPANEL
  6
CONTINUOUS
100
AcDbCircle
 10
14740.76921622322
 20
-885.3223141470815
 30
0.0
 40
1.999999999999999
100
AcDbArc
 50
0.0000000001344484
 51
90.00000000000005
  0
LINE
  5
181
100
AcDbEntity
  8
MAINPANEL
  6
CONTINUOUS
100
AcDbLine
 10
14742.76921622325
 20
-902.3223141470795
 30
0.0
 11
14742.76921622317
 21
-885.3223141470719
 31
0.0
  0
ARC
  5
182
100
AcDbEntity
  8
MAINPANEL
  6
CONTINUOUS
100
AcDbCircle
 10
14722.76921622319
 20
-884.1973141471695
 30
0.0
 40
5.124999999982076
100
AcDbArc
 50
192.6803834909871
 51
347.3196165090092
  0
TEXT
  5
183
100
AcDbEntity
  8
COMMENTS
100
AcDbText
 10
12567.65853256507
 20
582.3039883296396
 30
0.0
 40
15.37606532520528
  1
Drg version 1.0 / 15 Nov 2013
 41
0.6000000000000001
  7
ARIAL
 11
12567.65853256507
 21
582.3039883296396
 31
0.0
100
AcDbText
 73
     1
  0
ENDSEC
  0
SECTION
  2
OBJECTS
  0
DICTIONARY
  5
C
100
AcDbDictionary
  3
ACAD_GROUP
350
D
  3
ACAD_MLINESTYLE
350
1B
  3
ACDBVARIABLEDICTIONARY
350
1E
  0
DICTIONARY
  5
D
102
{ACAD_REACTORS
330
C
102
}
100
AcDbDictionary
  0
DICTIONARY
  5
1B
102
{ACAD_REACTORS
330
C
102
}
100
AcDbDictionary
  3
STANDARD
350
1C
  0
DICTIONARY
  5
1E
102
{ACAD_REACTORS
330
C
102
}
100
AcDbDictionary
  3
DIMADEC
350
1F
  0
MLINESTYLE
  5
1C
102
{ACAD_REACTORS
330
1B
102
}
100
AcDbMlineStyle
  2
STANDARD
 70
     0
  3

 62
   256
 51
90.0
 52
90.0
 71
     2
 49
0.5
 62
   256
  6
BYLAYER
 49
-0.5
 62
   256
  6
BYLAYER
  0
DICTIONARYVAR
  5
1F
102
{ACAD_REACTORS
330
1E
102
}
100
DictionaryVariables
280
     0
  1
-1
  0
ENDSEC
  0
EOF
