  0
SECTION
  2
HEADER
  9
$ACADVER
  1
AC1014
  9
$ACADMAINTVER
 70
     5
  9
$DWGCODEPAGE
  3
ANSI_1252
  9
$INSBASE
 10
0.0
 20
0.0
 30
0.0
  9
$EXTMIN
 10
1.000000000000000E+20
 20
1.000000000000000E+20
 30
1.000000000000000E+20
  9
$EXTMAX
 10
-1.000000000000000E+20
 20
-1.000000000000000E+20
 30
-1.000000000000000E+20
  9
$LIMMIN
 10
0.0
 20
0.0
  9
$LIMMAX
 10
12.0
 20
9.0
  9
$ORTHOMODE
 70
     0
  9
$REGENMODE
 70
     1
  9
$FILLMODE
 70
     1
  9
$QTEXTMODE
 70
     0
  9
$MIRRTEXT
 70
     1
  9
$DRAGMODE
 70
     2
  9
$LTSCALE
 40
1.0
  9
$OSMODE
 70
     0
  9
$ATTMODE
 70
     0
  9
$TEXTSIZE
 40
76.88032662602641
  9
$TRACEWID
 40
0.05
  9
$TEXTSTYLE
  7
STANDARD
  9
$CLAYER
  8
0
  9
$CELTYPE
  6
BYLAYER
  9
$CECOLOR
 62
   256
  9
$CELTSCALE
 40
1.0
  9
$DELOBJ
 70
     1
  9
$DISPSILH
 70
     0
  9
$DIMSCALE
 40
1.0
  9
$DIMASZ
 40
0.18
  9
$DIMEXO
 40
0.0625
  9
$DIMDLI
 40
0.38
  9
$DIMRND
 40
0.0
  9
$DIMDLE
 40
0.0
  9
$DIMEXE
 40
0.18
  9
$DIMTP
 40
0.0
  9
$DIMTM
 40
0.0
  9
$DIMTXT
 40
0.1513392256417843
  9
$DIMCEN
 40
0.09
  9
$DIMTSZ
 40
0.0
  9
$DIMTOL
 70
     0
  9
$DIMLIM
 70
     0
  9
$DIMTIH
 70
     1
  9
$DIMTOH
 70
     1
  9
$DIMSE1
 70
     0
  9
$DIMSE2
 70
     0
  9
$DIMTAD
 70
     0
  9
$DIMZIN
 70
     0
  9
$DIMBLK
  1

  9
$DIMASO
 70
     1
  9
$DIMSHO
 70
     1
  9
$DIMPOST
  1

  9
$DIMAPOST
  1

  9
$DIMALT
 70
     0
  9
$DIMALTD
 70
     2
  9
$DIMALTF
 40
25.4
  9
$DIMLFAC
 40
1.0
  9
$DIMTOFL
 70
     0
  9
$DIMTVP
 40
0.0
  9
$DIMTIX
 70
     0
  9
$DIMSOXD
 70
     0
  9
$DIMSAH
 70
     0
  9
$DIMBLK1
  1

  9
$DIMBLK2
  1

  9
$DIMSTYLE
  2
STANDARD
  9
$DIMCLRD
 70
     0
  9
$DIMCLRE
 70
     0
  9
$DIMCLRT
 70
     0
  9
$DIMTFAC
 40
1.0
  9
$DIMGAP
 40
0.09
  9
$DIMJUST
 70
     0
  9
$DIMSD1
 70
     0
  9
$DIMSD2
 70
     0
  9
$DIMTOLJ
 70
     1
  9
$DIMTZIN
 70
     0
  9
$DIMALTZ
 70
     0
  9
$DIMALTTZ
 70
     0
  9
$DIMFIT
 70
     3
  9
$DIMUPT
 70
     0
  9
$DIMUNIT
 70
     4
  9
$DIMDEC
 70
    -1
  9
$DIMTDEC
 70
     4
  9
$DIMALTU
 70
     2
  9
$DIMALTTD
 70
     2
  9
$DIMTXSTY
  7
STANDARD
  9
$DIMAUNIT
 70
     1
  9
$LUNITS
 70
     2
  9
$LUPREC
 70
     2
  9
$SKETCHINC
 40
0.1
  9
$FILLETRAD
 40
5.5
  9
$AUNITS
 70
     0
  9
$AUPREC
 70
     2
  9
$MENU
  1
.
  9
$ELEVATION
 40
0.0
  9
$PELEVATION
 40
0.0
  9
$THICKNESS
 40
0.0
  9
$LIMCHECK
 70
     0
  9
$BLIPMODE
 70
     0
  9
$CHAMFERA
 40
5.0
  9
$CHAMFERB
 40
5.0
  9
$CHAMFERC
 40
0.0
  9
$CHAMFERD
 40
0.0
  9
$SKPOLY
 70
     0
  9
$TDCREATE
 40
0.0000000000
  9
$TDUPDATE
 40
0.0000000000
  9
$TDINDWG
 40
0.0000000000
  9
$TDUSRTIMER
 40
0.0000000000
  9
$USRTIMER
 70
     1
  9
$ANGBASE
 50
0.0
  9
$ANGDIR
 70
     0
  9
$PDMODE
 70
     0
  9
$PDSIZE
 40
0.0
  9
$PLINEWID
 40
0.0
  9
$COORDS
 70
     1
  9
$SPLFRAME
 70
     0
  9
$SPLINETYPE
 70
     6
  9
$SPLINESEGS
 70
     8
  9
$ATTDIA
 70
     0
  9
$ATTREQ
 70
     1
  9
$HANDLING
 70
     1
  9
$HANDSEED
  5
2A0
  9
$SURFTAB1
 70
     6
  9
$SURFTAB2
 70
     6
  9
$SURFTYPE
 70
     6
  9
$SURFU
 70
     6
  9
$SURFV
 70
     6
  9
$UCSNAME
  2

  9
$UCSORG
 10
0.0
 20
0.0
 30
0.0
  9
$UCSXDIR
 10
1.0
 20
0.0
 30
0.0
  9
$UCSYDIR
 10
0.0
 20
1.0
 30
0.0
  9
$PUCSNAME
  2

  9
$PUCSORG
 10
0.0
 20
0.0
 30
0.0
  9
$PUCSXDIR
 10
1.0
 20
0.0
 30
0.0
  9
$PUCSYDIR
 10
0.0
 20
1.0
 30
0.0
  9
$USERI1
 70
     0
  9
$USERI2
 70
     0
  9
$USERI3
 70
     0
  9
$USERI4
 70
     0
  9
$USERI5
 70
     0
  9
$USERR1
 40
0.0
  9
$USERR2
 40
0.0
  9
$USERR3
 40
0.0
  9
$USERR4
 40
0.0
  9
$USERR5
 40
0.0
  9
$WORLDVIEW
 70
     1
  9
$SHADEDGE
 70
     3
  9
$SHADEDIF
 70
    70
  9
$TILEMODE
 70
     1
  9
$MAXACTVP
 70
    48
  9
$PINSBASE
 10
0.0
 20
0.0
 30
0.0
  9
$PLIMCHECK
 70
     0
  9
$PEXTMIN
 10
1.000000000000000E+20
 20
1.000000000000000E+20
 30
1.000000000000000E+20
  9
$PEXTMAX
 10
-1.000000000000000E+20
 20
-1.000000000000000E+20
 30
-1.000000000000000E+20
  9
$PLIMMIN
 10
0.0
 20
0.0
  9
$PLIMMAX
 10
12.0
 20
9.0
  9
$UNITMODE
 70
     0
  9
$VISRETAIN
 70
     1
  9
$PLINEGEN
 70
     0
  9
$PSLTSCALE
 70
     1
  9
$TREEDEPTH
 70
  3020
  9
$PICKSTYLE
 70
     1
  9
$CMLSTYLE
  2
STANDARD
  9
$CMLJUST
 70
     0
  9
$CMLSCALE
 40
1.0
  9
$PROXYGRAPHICS
 70
     1
  9
$MEASUREMENT
 70
     0
  0
ENDSEC
  0
SECTION
  2
CLASSES
  0
CLASS
  1
DICTIONARYVAR
  2
AcDbDictionaryVar
  3
"AutoCAD"
 90
        0
280
     0
281
     0
  0
CLASS
  1
LWPOLYLINE
  2
AcDbPolyline
  3
"AutoCAD"
 90
        0
280
     0
281
     1
  0
ENDSEC
  0
SECTION
  2
TABLES
  0
TABLE
  2
VPORT
  5
8
100
AcDbSymbolTable
 70
     1
  0
VPORT
  5
11
100
AcDbSymbolTableRecord
100
AcDbViewportTableRecord
  2
*ACTIVE
 70
     0
 10
0.0
 20
0.0
 11
1.0
 21
1.0
 12
3.6
 22
4.5
 13
0.0
 23
0.0
 14
1.0
 24
1.0
 15
0.0
 25
0.0
 16
0.0
 26
0.0
 36
1.0
 17
0.0
 27
0.0
 37
0.0
 40
15.0
 41
0.8
 42
50.0
 43
0.0
 44
0.0
 50
0.0
 51
0.0
 71
     0
 72
   100
 73
     1
 74
     1
 75
     0
 76
     0
 77
     0
 78
     0
  0
ENDTAB
  0
TABLE
  2
LTYPE
  5
5
100
AcDbSymbolTable
 70
    40
  0
LTYPE
  5
12
100
AcDbSymbolTableRecord
100
AcDbLinetypeTableRecord
  2
BYBLOCK
 70
     0
  3

 72
    65
 73
     0
 40
0.0
  0
LTYPE
  5
13
100
AcDbSymbolTableRecord
100
AcDbLinetypeTableRecord
  2
BYLAYER
 70
     0
  3

 72
    65
 73
     0
 40
0.0
  0
LTYPE
  5
14
100
AcDbSymbolTableRecord
100
AcDbLinetypeTableRecord
  2
CONTINUOUS
 70
     0
  3
Solid line
 72
    65
 73
     0
 40
0.0
  0
LTYPE
  5
20
100
AcDbSymbolTableRecord
100
AcDbLinetypeTableRecord
  2
HIDDEN
 70
     0
  3
_ _ _ _ _ _ _ _ _ _ _ _ _ _ 
 72
    65
 73
     2
 40
9.524999999999998
 49
6.349999999999999
 74
     0
 49
-3.174999999999999
 74
     0
  0
LTYPE
  5
21
100
AcDbSymbolTableRecord
100
AcDbLinetypeTableRecord
  2
DASHED
 70
     0
  3
__ __ __ __ __ __ __ __ __ 
 72
    65
 73
     2
 40
19.04999999999999
 49
12.7
 74
     0
 49
-6.349999999999999
 74
     0
  0
LTYPE
  5
22
100
AcDbSymbolTableRecord
100
AcDbLinetypeTableRecord
  2
CENTER
 70
     0
  3
____ _ ____ _ ____ _ ____ _ 
 72
    65
 73
     4
 40
50.8
 49
31.75
 74
     0
 49
-6.349999999999999
 74
     0
 49
6.349999999999999
 74
     0
 49
-6.349999999999999
 74
     0
  0
LTYPE
  5
23
100
AcDbSymbolTableRecord
100
AcDbLinetypeTableRecord
  2
PHANTOM
 70
     0
  3
_____ _ _ _____ _ _ _____ _ _ 
 72
    65
 73
     6
 40
63.50000000000001
 49
31.75
 74
     0
 49
-6.349999999999999
 74
     0
 49
6.349999999999999
 74
     0
 49
-6.349999999999999
 74
     0
 49
6.349999999999999
 74
     0
 49
-6.349999999999999
 74
     0
  0
LTYPE
  5
24
100
AcDbSymbolTableRecord
100
AcDbLinetypeTableRecord
  2
DOT
 70
     0
  3
...........................
 72
    65
 73
     2
 40
6.349999999999999
 49
0.0
 74
     0
 49
-6.349999999999999
 74
     0
  0
LTYPE
  5
25
100
AcDbSymbolTableRecord
100
AcDbLinetypeTableRecord
  2
DASHDOT
 70
     0
  3
__ . __ . __ . __ . __ . __ . 
 72
    65
 73
     4
 40
25.4
 49
12.7
 74
     0
 49
-6.349999999999999
 74
     0
 49
0.0
 74
     0
 49
-6.349999999999999
 74
     0
  0
LTYPE
  5
26
100
AcDbSymbolTableRecord
100
AcDbLinetypeTableRecord
  2
DIVIDE
 70
     0
  3
__ . . __ . . __ . . __ . . 
 72
    65
 73
     6
 40
31.75
 49
12.7
 74
     0
 49
-6.349999999999999
 74
     0
 49
0.0
 74
     0
 49
-6.349999999999999
 74
     0
 49
0.0
 74
     0
 49
-6.349999999999999
 74
     0
  0
LTYPE
  5
27
100
AcDbSymbolTableRecord
100
AcDbLinetypeTableRecord
  2
BORDER
 70
     0
  3
__ __ . __ __ . __ __ . __ __ .
 72
    65
 73
     6
 40
44.44999999999999
 49
12.7
 74
     0
 49
-6.349999999999999
 74
     0
 49
12.7
 74
     0
 49
-6.349999999999999
 74
     0
 49
0.0
 74
     0
 49
-6.349999999999999
 74
     0
  0
LTYPE
  5
28
100
AcDbSymbolTableRecord
100
AcDbLinetypeTableRecord
  2
BORDER2
 70
     0
  3
Border (.5x) __.__.__.__.__.__.
 72
    65
 73
     6
 40
0.875
 49
0.25
 74
     0
 49
-0.125
 74
     0
 49
0.25
 74
     0
 49
-0.125
 74
     0
 49
0.0
 74
     0
 49
-0.125
 74
     0
  0
LTYPE
  5
29
100
AcDbSymbolTableRecord
100
AcDbLinetypeTableRecord
  2
BORDERX2
 70
     0
  3
Border (2x) ____  ____  .  ____
 72
    65
 73
     6
 40
3.5
 49
1.0
 74
     0
 49
-0.5
 74
     0
 49
1.0
 74
     0
 49
-0.5
 74
     0
 49
0.0
 74
     0
 49
-0.5
 74
     0
  0
LTYPE
  5
2A
100
AcDbSymbolTableRecord
100
AcDbLinetypeTableRecord
  2
CENTER2
 70
     0
  3
Center (.5x) ___ _ ___ _ ___ _ 
 72
    65
 73
     4
 40
1.125
 49
0.75
 74
     0
 49
-0.125
 74
     0
 49
0.125
 74
     0
 49
-0.125
 74
     0
  0
LTYPE
  5
2B
100
AcDbSymbolTableRecord
100
AcDbLinetypeTableRecord
  2
CENTERX2
 70
     0
  3
Center (2x) ________  __  _____
 72
    65
 73
     4
 40
4.0
 49
2.5
 74
     0
 49
-0.5
 74
     0
 49
0.5
 74
     0
 49
-0.5
 74
     0
  0
LTYPE
  5
2C
100
AcDbSymbolTableRecord
100
AcDbLinetypeTableRecord
  2
DASHDOT2
 70
     0
  3
Dash dot (.5x) _._._._._._._._.
 72
    65
 73
     4
 40
0.5
 49
0.25
 74
     0
 49
-0.125
 74
     0
 49
0.0
 74
     0
 49
-0.125
 74
     0
  0
LTYPE
  5
2D
100
AcDbSymbolTableRecord
100
AcDbLinetypeTableRecord
  2
DASHDOTX2
 70
     0
  3
Dash dot (2x) ____  .  ____  . 
 72
    65
 73
     4
 40
2.0
 49
1.0
 74
     0
 49
-0.5
 74
     0
 49
0.0
 74
     0
 49
-0.5
 74
     0
  0
LTYPE
  5
2E
100
AcDbSymbolTableRecord
100
AcDbLinetypeTableRecord
  2
DASHED2
 70
     0
  3
Dashed (.5x) _ _ _ _ _ _ _ _ _ 
 72
    65
 73
     2
 40
0.375
 49
0.25
 74
     0
 49
-0.125
 74
     0
  0
LTYPE
  5
2F
100
AcDbSymbolTableRecord
100
AcDbLinetypeTableRecord
  2
DASHEDX2
 70
     0
  3
Dashed (2x) ____  ____  ____  _
 72
    65
 73
     2
 40
1.5
 49
1.0
 74
     0
 49
-0.5
 74
     0
  0
LTYPE
  5
30
100
AcDbSymbolTableRecord
100
AcDbLinetypeTableRecord
  2
DIVIDE2
 70
     0
  3
Divide (.5x) __..__..__..__..__
 72
    65
 73
     6
 40
0.625
 49
0.25
 74
     0
 49
-0.125
 74
     0
 49
0.0
 74
     0
 49
-0.125
 74
     0
 49
0.0
 74
     0
 49
-0.125
 74
     0
  0
LTYPE
  5
31
100
AcDbSymbolTableRecord
100
AcDbLinetypeTableRecord
  2
DIVIDEX2
 70
     0
  3
Divide (2x) ________  .  .  ___
 72
    65
 73
     6
 40
2.5
 49
1.0
 74
     0
 49
-0.5
 74
     0
 49
0.0
 74
     0
 49
-0.5
 74
     0
 49
0.0
 74
     0
 49
-0.5
 74
     0
  0
LTYPE
  5
32
100
AcDbSymbolTableRecord
100
AcDbLinetypeTableRecord
  2
DOT2
 70
     0
  3
Dot (.5x) .....................
 72
    65
 73
     2
 40
0.125
 49
0.0
 74
     0
 49
-0.125
 74
     0
  0
LTYPE
  5
33
100
AcDbSymbolTableRecord
100
AcDbLinetypeTableRecord
  2
DOTX2
 70
     0
  3
Dot (2x) .  .  .  .  .  .  .  .
 72
    65
 73
     2
 40
0.5
 49
0.0
 74
     0
 49
-0.5
 74
     0
  0
LTYPE
  5
34
100
AcDbSymbolTableRecord
100
AcDbLinetypeTableRecord
  2
HIDDEN2
 70
     0
  3
Hidden (.5x) _ _ _ _ _ _ _ _ _ 
 72
    65
 73
     2
 40
0.1875
 49
0.125
 74
     0
 49
-0.0625
 74
     0
  0
LTYPE
  5
35
100
AcDbSymbolTableRecord
100
AcDbLinetypeTableRecord
  2
HIDDENX2
 70
     0
  3
Hidden (2x) ____ ____ ____ ____
 72
    65
 73
     2
 40
0.75
 49
0.5
 74
     0
 49
-0.25
 74
     0
  0
LTYPE
  5
36
100
AcDbSymbolTableRecord
100
AcDbLinetypeTableRecord
  2
PHANTOM2
 70
     0
  3
Phantom (.5x) ___ _ _ ___ _ _ _
 72
    65
 73
     6
 40
1.25
 49
0.625
 74
     0
 49
-0.125
 74
     0
 49
0.125
 74
     0
 49
-0.125
 74
     0
 49
0.125
 74
     0
 49
-0.125
 74
     0
  0
LTYPE
  5
37
100
AcDbSymbolTableRecord
100
AcDbLinetypeTableRecord
  2
PHANTOMX2
 70
     0
  3
Phantom (2x) ____________    __
 72
    65
 73
     6
 40
5.0
 49
2.5
 74
     0
 49
-0.5
 74
     0
 49
0.5
 74
     0
 49
-0.5
 74
     0
 49
0.5
 74
     0
 49
-0.5
 74
     0
  0
LTYPE
  5
38
100
AcDbSymbolTableRecord
100
AcDbLinetypeTableRecord
  2
DOTS
 70
     0
  3
Dots - - - - - - - - - - - - - 
 72
    65
 73
     2
 40
0.1
 49
0.05
 74
     0
 49
-0.05
 74
     0
  0
LTYPE
  5
39
100
AcDbSymbolTableRecord
100
AcDbLinetypeTableRecord
  2
ACAD_ISO02W100
 70
     0
  3
__ __ __ __ __ __ __ __ __ __ _
 72
    65
 73
     2
 40
15.0
 49
12.0
 74
     0
 49
-3.0
 74
     0
  0
LTYPE
  5
3A
100
AcDbSymbolTableRecord
100
AcDbLinetypeTableRecord
  2
ACAD_ISO03W100
 70
     0
  3
__    __    __    __    __    _
 72
    65
 73
     2
 40
30.0
 49
12.0
 74
     0
 49
-18.0
 74
     0
  0
LTYPE
  5
3B
100
AcDbSymbolTableRecord
100
AcDbLinetypeTableRecord
  2
ACAD_ISO04W100
 70
     0
  3
____ . ____ . ____ . ____ . ___
 72
    65
 73
     4
 40
30.5
 49
24.0
 74
     0
 49
-3.0
 74
     0
 49
0.5
 74
     0
 49
-3.0
 74
     0
  0
LTYPE
  5
3C
100
AcDbSymbolTableRecord
100
AcDbLinetypeTableRecord
  2
ACAD_ISO05W100
 70
     0
  3
____ .. ____ .. ____ .. ____ ..
 72
    65
 73
     6
 40
34.0
 49
24.0
 74
     0
 49
-3.0
 74
     0
 49
0.5
 74
     0
 49
-3.0
 74
     0
 49
0.5
 74
     0
 49
-3.0
 74
     0
  0
LTYPE
  5
3D
100
AcDbSymbolTableRecord
100
AcDbLinetypeTableRecord
  2
ACAD_ISO06W100
 70
     0
  3
____ ... ____ ... ____ ... ____
 72
    65
 73
     6
 40
34.0
 49
24.0
 74
     0
 49
-3.0
 74
     0
 49
0.5
 74
     0
 49
-3.0
 74
     0
 49
0.5
 74
     0
 49
-3.0
 74
     0
  0
LTYPE
  5
3E
100
AcDbSymbolTableRecord
100
AcDbLinetypeTableRecord
  2
ACAD_ISO07W100
 70
     0
  3
. . . . . . . . . . . . . . . .
 72
    65
 73
     2
 40
3.5
 49
0.5
 74
     0
 49
-3.0
 74
     0
  0
LTYPE
  5
3F
100
AcDbSymbolTableRecord
100
AcDbLinetypeTableRecord
  2
ACAD_ISO08W100
 70
     0
  3
____ __ ____ __ ____ __ ____ __
 72
    65
 73
     4
 40
36.0
 49
24.0
 74
     0
 49
-3.0
 74
     0
 49
6.0
 74
     0
 49
-3.0
 74
     0
  0
LTYPE
  5
40
100
AcDbSymbolTableRecord
100
AcDbLinetypeTableRecord
  2
ACAD_ISO09W100
 70
     0
  3
____ __ __ ____ __ __ ____ __ _
 72
    65
 73
     6
 40
45.0
 49
24.0
 74
     0
 49
-3.0
 74
     0
 49
6.0
 74
     0
 49
-3.0
 74
     0
 49
6.0
 74
     0
 49
-3.0
 74
     0
  0
LTYPE
  5
41
100
AcDbSymbolTableRecord
100
AcDbLinetypeTableRecord
  2
ACAD_ISO10W100
 70
     0
  3
__ . __ . __ . __ . __ . __ . _
 72
    65
 73
     4
 40
18.5
 49
12.0
 74
     0
 49
-3.0
 74
     0
 49
0.5
 74
     0
 49
-3.0
 74
     0
  0
LTYPE
  5
42
100
AcDbSymbolTableRecord
100
AcDbLinetypeTableRecord
  2
ACAD_ISO11W100
 70
     0
  3
__ __ . __ __ . __ __ . __ __ .
 72
    65
 73
     6
 40
33.5
 49
12.0
 74
     0
 49
-3.0
 74
     0
 49
12.0
 74
     0
 49
-3.0
 74
     0
 49
0.5
 74
     0
 49
-3.0
 74
     0
  0
LTYPE
  5
43
100
AcDbSymbolTableRecord
100
AcDbLinetypeTableRecord
  2
ACAD_ISO12W100
 70
     0
  3
__ . . __ . . __ . . __ . . __ 
 72
    65
 73
     6
 40
22.0
 49
12.0
 74
     0
 49
-3.0
 74
     0
 49
0.5
 74
     0
 49
-3.0
 74
     0
 49
0.5
 74
     0
 49
-3.0
 74
     0
  0
LTYPE
  5
44
100
AcDbSymbolTableRecord
100
AcDbLinetypeTableRecord
  2
ACAD_ISO13W100
 70
     0
  3
__ __ . . __ __ . . __ __ . . _
 72
    65
 73
     6
 40
33.5
 49
12.0
 74
     0
 49
-3.0
 74
     0
 49
12.0
 74
     0
 49
-3.0
 74
     0
 49
0.5
 74
     0
 49
-3.0
 74
     0
  0
LTYPE
  5
45
100
AcDbSymbolTableRecord
100
AcDbLinetypeTableRecord
  2
ACAD_ISO14W100
 70
     0
  3
__ . . . __ . . . __ . . . __ .
 72
    65
 73
     6
 40
22.0
 49
12.0
 74
     0
 49
-3.0
 74
     0
 49
0.5
 74
     0
 49
-3.0
 74
     0
 49
0.5
 74
     0
 49
-3.0
 74
     0
  0
LTYPE
  5
46
100
AcDbSymbolTableRecord
100
AcDbLinetypeTableRecord
  2
ACAD_ISO15W100
 70
     0
  3
__ __ . . . __ __ . . . __ __ .
 72
    65
 73
     6
 40
33.5
 49
12.0
 74
     0
 49
-3.0
 74
     0
 49
12.0
 74
     0
 49
-3.0
 74
     0
 49
0.5
 74
     0
 49
-3.0
 74
     0
  0
ENDTAB
  0
TABLE
  2
LAYER
  5
2
100
AcDbSymbolTable
 70
     7
  0
LAYER
  5
E
100
AcDbSymbolTableRecord
100
AcDbLayerTableRecord
  2
0
 70
     0
 62
     7
  6
CONTINUOUS
  0
LAYER
  5
47
100
AcDbSymbolTableRecord
100
AcDbLayerTableRecord
  2
AXES
 70
     0
 62
     1
  6
CONTINUOUS
  0
LAYER
  5
48
100
AcDbSymbolTableRecord
100
AcDbLayerTableRecord
  2
COMMENTS
 70
     0
 62
    94
  6
CONTINUOUS
  0
LAYER
  5
49
100
AcDbSymbolTableRecord
100
AcDbLayerTableRecord
  2
HINGES
 70
     0
 62
     7
  6
CONTINUOUS
  0
LAYER
  5
4A
100
AcDbSymbolTableRecord
100
AcDbLayerTableRecord
  2
MAINSEGMENT
 70
     4
 62
     7
  6
CONTINUOUS
  0
LAYER
  5
4B
100
AcDbSymbolTableRecord
100
AcDbLayerTableRecord
  2
NUTS
 70
     0
 62
     7
  6
CONTINUOUS
  0
LAYER
  5
4C
100
AcDbSymbolTableRecord
100
AcDbLayerTableRecord
  2
SIDEFLAP
 70
     4
 62
     7
  6
CONTINUOUS
  0
ENDTAB
  0
TABLE
  2
STYLE
  5
3
100
AcDbSymbolTable
 70
     5
  0
STYLE
  5
F
100
AcDbSymbolTableRecord
100
AcDbTextStyleTableRecord
  2
STANDARD
 70
     0
 40
0.0
 41
1.0
 50
0.0
 71
     0
 42
76.88032662602641
  3
txt
  4

  0
STYLE
  5
4D
100
AcDbSymbolTableRecord
100
AcDbTextStyleTableRecord
  2
ITALIC
 70
     0
 40
0.0
 41
1.0
 50
0.0
 71
     0
 42
76.88032662602641
  3
ITALIC
  4

  0
STYLE
  5
4E
100
AcDbSymbolTableRecord
100
AcDbTextStyleTableRecord
  2
SIMPLEX
 70
     0
 40
0.0
 41
1.0
 50
0.0
 71
     0
 42
76.88032662602641
  3
SIMPLEX
  4

  0
STYLE
  5
4F
100
AcDbSymbolTableRecord
100
AcDbTextStyleTableRecord
  2
COMPLEX
 70
     0
 40
0.0
 41
1.0
 50
0.0
 71
     0
 42
76.88032662602641
  3
COMPLEX
  4

  0
STYLE
  5
14A
100
AcDbSymbolTableRecord
100
AcDbTextStyleTableRecord
  2
ARIAL
 70
     0
 40
0.0
 41
1.0
 50
0.0
 71
     0
 42
76.88032662602641
  3
ARIAL.TTF
  4

1001
ACAD
1000
Arial
1071
        0
  0
ENDTAB
  0
TABLE
  2
VIEW
  5
6
100
AcDbSymbolTable
 70
     0
  0
ENDTAB
  0
TABLE
  2
UCS
  5
7
100
AcDbSymbolTable
 70
     0
  0
ENDTAB
  0
TABLE
  2
APPID
  5
9
100
AcDbSymbolTable
 70
     1
  0
APPID
  5
10
100
AcDbSymbolTableRecord
100
AcDbRegAppTableRecord
  2
ACAD
 70
     0
  0
ENDTAB
  0
TABLE
  2
DIMSTYLE
  5
A
100
AcDbSymbolTable
 70
     1
  0
DIMSTYLE
105
1D
100
AcDbSymbolTableRecord
100
AcDbDimStyleTableRecord
  2
STANDARD
 70
     0
  3

  4

  5

  6

  7

 40
1.0
 41
0.18
 42
0.0625
 43
0.38
 44
0.18
 45
0.0
 46
0.0
 47
0.0
 48
0.0
140
0.18
141
0.09
142
0.0
143
25.4
144
1.0
145
0.0
146
1.0
147
0.09
 71
     0
 72
     0
 73
     1
 74
     1
 75
     0
 76
     0
 77
     0
 78
     0
170
     0
171
     2
172
     0
173
     0
174
     0
175
     0
176
     0
177
     0
178
     0
270
     2
271
     4
272
     4
273
     2
274
     2
340
F
275
     0
280
     0
281
     0
282
     0
283
     1
284
     0
285
     0
286
     0
287
     3
288
     0
  0
ENDTAB
  0
TABLE
  2
BLOCK_RECORD
  5
1
100
AcDbSymbolTable
 70
     0
  0
BLOCK_RECORD
  5
18
100
AcDbSymbolTableRecord
100
AcDbBlockTableRecord
  2
*MODEL_SPACE
  0
BLOCK_RECORD
  5
15
100
AcDbSymbolTableRecord
100
AcDbBlockTableRecord
  2
*PAPER_SPACE
  0
ENDTAB
  0
ENDSEC
  0
SECTION
  2
BLOCKS
  0
BLOCK
  5
19
100
AcDbEntity
  8
0
100
AcDbBlockBegin
  2
*MODEL_SPACE
 70
     0
 10
0.0
 20
0.0
 30
0.0
  3
*MODEL_SPACE
  1

  0
ENDBLK
  5
1A
100
AcDbEntity
  8
0
100
AcDbBlockEnd
  0
BLOCK
  5
16
100
AcDbEntity
 67
     1
  8
0
100
AcDbBlockBegin
  2
*PAPER_SPACE
 70
     0
 10
0.0
 20
0.0
 30
0.0
  3
*PAPER_SPACE
  1

  0
ENDBLK
  5
17
100
AcDbEntity
 67
     1
  8
0
100
AcDbBlockEnd
  0
ENDSEC
  0
SECTION
  2
ENTITIES
  0
LINE
  5
50
100
AcDbEntity
  8
MAINSEGMENT
  6
CONTINUOUS
100
AcDbLine
 10
13356.95931211231
 20
-1004.578235830944
 30
0.0
 11
13961.95931211231
 21
-1004.578235830944
 31
0.0
  0
LINE
  5
51
100
AcDbEntity
  8
MAINSEGMENT
  6
CONTINUOUS
100
AcDbLine
 10
13356.95931211231
 20
-1029.578235830945
 30
0.0
 11
13961.95931211231
 21
-1029.578235830945
 31
0.0
  0
LINE
  5
52
100
AcDbEntity
  8
MAINSEGMENT
  6
CONTINUOUS
100
AcDbLine
 10
13961.95931211231
 20
-1029.578235830945
 30
0.0
 11
13961.95931211231
 21
-1004.578235830944
 31
0.0
  0
LINE
  5
53
100
AcDbEntity
  8
MAINSEGMENT
  6
CONTINUOUS
100
AcDbLine
 10
13356.95931211231
 20
-1004.578235830944
 30
0.0
 11
13356.95931211231
 21
-1029.578235830945
 31
0.0
  0
LINE
  5
54
100
AcDbEntity
  8
MAINSEGMENT
  6
CONTINUOUS
100
AcDbLine
 10
13356.95931211231
 20
-821.3965918682538
 30
0.0
 11
13961.95931211231
 21
-821.3965918682367
 31
0.0
  0
LINE
  5
55
100
AcDbEntity
  8
MAINSEGMENT
  6
CONTINUOUS
100
AcDbLine
 10
13961.95931211231
 20
-821.3965918682514
 30
0.0
 11
13961.95931211231
 21
-166.3965918682515
 31
0.0
  0
LINE
  5
56
100
AcDbEntity
  8
MAINSEGMENT
  6
CONTINUOUS
100
AcDbLine
 10
13356.95931211231
 20
-821.3965918682514
 30
0.0
 11
13356.95931211231
 21
-166.3965918682515
 31
0.0
  0
LINE
  5
57
100
AcDbEntity
  8
MAINSEGMENT
  6
CONTINUOUS
100
AcDbLine
 10
13356.95931211231
 20
-1009.578235830945
 30
0.0
 11
13961.95931211231
 21
-1009.578235830945
 31
0.0
  0
LINE
  5
58
100
AcDbEntity
  8
MAINSEGMENT
  6
CONTINUOUS
100
AcDbLine
 10
13372.95931211231
 20
-196.3965918682509
 30
0.0
 11
13372.95931211232
 21
-191.3965918682505
 31
0.0
  0
LINE
  5
59
100
AcDbEntity
  8
MAINSEGMENT
  6
CONTINUOUS
100
AcDbLine
 10
13390.95931211231
 20
-196.3965918682509
 30
0.0
 11
13390.95931211231
 21
-191.3965918682469
 31
0.0
  0
LINE
  5
5A
100
AcDbEntity
  8
MAINSEGMENT
  6
CONTINUOUS
100
AcDbLine
 10
13582.95931211232
 20
-196.3965918682509
 30
0.0
 11
13582.95931211233
 21
-191.3965918682084
 31
0.0
  0
LINE
  5
5B
100
AcDbEntity
  8
MAINSEGMENT
  6
CONTINUOUS
100
AcDbLine
 10
13600.95931211231
 20
-196.3965918682509
 30
0.0
 11
13600.95931211232
 21
-191.3965918682048
 31
0.0
  0
LINE
  5
5C
100
AcDbEntity
  8
MAINSEGMENT
  6
CONTINUOUS
100
AcDbLine
 10
13792.95931211231
 20
-196.3965918682509
 30
0.0
 11
13792.95931211231
 21
-191.3965918681663
 31
0.0
  0
LINE
  5
5D
100
AcDbEntity
  8
MAINSEGMENT
  6
CONTINUOUS
100
AcDbLine
 10
13810.95931211232
 20
-196.3965918682509
 30
0.0
 11
13810.95931211231
 21
-191.3965918681626
 31
0.0
  0
LINE
  5
5E
100
AcDbEntity
  8
MAINSEGMENT
  6
CONTINUOUS
100
AcDbLine
 10
13927.95931211232
 20
-196.3965918682509
 30
0.0
 11
13927.95931211231
 21
-191.3965918681392
 31
0.0
  0
LINE
  5
5F
100
AcDbEntity
  8
MAINSEGMENT
  6
CONTINUOUS
100
AcDbLine
 10
13945.95931211232
 20
-196.3965918682509
 30
0.0
 11
13945.95931211231
 21
-191.3965918681356
 31
0.0
  0
LINE
  5
60
100
AcDbEntity
  8
MAINSEGMENT
  6
CONTINUOUS
100
AcDbLine
 10
13820.95931211232
 20
-196.3965918682509
 30
0.0
 11
13820.95931211231
 21
-166.3965918682515
 31
0.0
  0
LINE
  5
61
100
AcDbEntity
  8
MAINSEGMENT
  6
CONTINUOUS
100
AcDbLine
 10
13917.95931211232
 20
-196.3965918682509
 30
0.0
 11
13917.95931211232
 21
-166.3965918682515
 31
0.0
  0
LINE
  5
62
100
AcDbEntity
  8
MAINSEGMENT
  6
CONTINUOUS
100
AcDbLine
 10
13372.95931211232
 20
-196.3965918682509
 30
0.0
 11
13390.95931211231
 21
-196.3965918682495
 31
0.0
  0
LINE
  5
63
100
AcDbEntity
  8
MAINSEGMENT
  6
CONTINUOUS
100
AcDbLine
 10
13582.95931211233
 20
-196.3965918682521
 30
0.0
 11
13600.95931211233
 21
-196.3965918682527
 31
0.0
  0
LINE
  5
64
100
AcDbEntity
  8
MAINSEGMENT
  6
CONTINUOUS
100
AcDbLine
 10
13792.95931211231
 20
-196.3965918682529
 30
0.0
 11
13810.95931211231
 21
-196.3965918682619
 31
0.0
  0
LINE
  5
65
100
AcDbEntity
  8
MAINSEGMENT
  6
CONTINUOUS
100
AcDbLine
 10
13820.95931211233
 20
-196.3965918682525
 30
0.0
 11
13917.95931211232
 21
-196.3965918682569
 31
0.0
  0
LINE
  5
66
100
AcDbEntity
  8
MAINSEGMENT
  6
CONTINUOUS
100
AcDbLine
 10
13927.95931211231
 20
-196.3965918682505
 30
0.0
 11
13945.95931211231
 21
-196.3965918682537
 31
0.0
  0
LINE
  5
67
100
AcDbEntity
  8
MAINSEGMENT
  6
CONTINUOUS
100
AcDbLine
 10
13356.95931211231
 20
-166.3965918682515
 30
0.0
 11
13364.45931211233
 21
-166.3965918682496
 31
0.0
  0
LINE
  5
68
100
AcDbEntity
  8
MAINSEGMENT
  6
CONTINUOUS
100
AcDbLine
 10
13399.45931211232
 20
-166.3965918682518
 30
0.0
 11
13574.45931211233
 21
-166.3965918682502
 31
0.0
  0
LINE
  5
69
100
AcDbEntity
  8
MAINSEGMENT
  6
CONTINUOUS
100
AcDbLine
 10
13609.45931211232
 20
-166.3965918682507
 30
0.0
 11
13784.45931211232
 21
-166.3965918682523
 31
0.0
  0
LINE
  5
6A
100
AcDbEntity
  8
MAINSEGMENT
  6
CONTINUOUS
100
AcDbLine
 10
13819.45931211233
 20
-166.3965918682467
 30
0.0
 11
13820.95931211233
 21
-166.3965918682514
 31
0.0
  0
LINE
  5
6B
100
AcDbEntity
  8
MAINSEGMENT
  6
CONTINUOUS
100
AcDbLine
 10
13917.95931211232
 20
-166.396591868252
 30
0.0
 11
13919.45931211233
 21
-166.3965918682514
 31
0.0
  0
LINE
  5
6C
100
AcDbEntity
  8
MAINSEGMENT
  6
CONTINUOUS
100
AcDbLine
 10
13954.45931211232
 20
-166.3965918682503
 30
0.0
 11
13961.95931211231
 21
-166.3965918682515
 31
0.0
  0
LINE
  5
6D
100
AcDbEntity
  8
AXES
  6
CONTINUOUS
100
AcDbLine
 10
13936.95931211232
 20
-195.6614638417003
 30
0.0
 11
13936.95931211232
 21
-138.7354285188877
 31
0.0
  0
LINE
  5
6E
100
AcDbEntity
  8
AXES
  6
CONTINUOUS
100
AcDbLine
 10
13801.95931211231
 20
-195.6614638417003
 30
0.0
 11
13801.95931211231
 21
-138.7354285188877
 31
0.0
  0
LINE
  5
6F
100
AcDbEntity
  8
AXES
  6
CONTINUOUS
100
AcDbLine
 10
13591.95931211232
 20
-195.6614638417003
 30
0.0
 11
13591.95931211232
 21
-138.7354285188877
 31
0.0
  0
LINE
  5
70
100
AcDbEntity
  8
AXES
  6
CONTINUOUS
100
AcDbLine
 10
13381.95931211232
 20
-195.6614638417003
 30
0.0
 11
13381.95931211232
 21
-138.7354285188877
 31
0.0
  0
LINE
  5
71
100
AcDbEntity
  8
MAINSEGMENT
  6
CONTINUOUS
100
AcDbLine
 10
13945.45931211232
 20
-191.3965918682641
 30
0.0
 11
13945.45931211232
 21
-156.3965918682521
 31
0.0
  0
LINE
  5
72
100
AcDbEntity
  8
MAINSEGMENT
  6
CONTINUOUS
100
AcDbLine
 10
13954.45931211232
 20
-191.3965918682623
 30
0.0
 11
13954.45931211232
 21
-156.3965918682518
 31
0.0
  0
LINE
  5
73
100
AcDbEntity
  8
MAINSEGMENT
  6
CONTINUOUS
100
AcDbLine
 10
13945.45931211232
 20
-191.3965918682564
 30
0.0
 11
13954.45931211232
 21
-191.3965918682546
 31
0.0
  0
LINE
  5
74
100
AcDbEntity
  8
MAINSEGMENT
  6
CONTINUOUS
100
AcDbLine
 10
13945.45931211232
 20
-156.3965918682564
 30
0.0
 11
13954.45931211232
 21
-156.3965918682562
 31
0.0
  0
LINE
  5
75
100
AcDbEntity
  8
MAINSEGMENT
  6
CONTINUOUS
100
AcDbLine
 10
13919.45931211232
 20
-191.3965918682694
 30
0.0
 11
13919.45931211232
 21
-156.3965918682529
 31
0.0
  0
LINE
  5
76
100
AcDbEntity
  8
MAINSEGMENT
  6
CONTINUOUS
100
AcDbLine
 10
13928.45931211232
 20
-191.3965918682676
 30
0.0
 11
13928.45931211232
 21
-156.3965918682526
 31
0.0
  0
LINE
  5
77
100
AcDbEntity
  8
MAINSEGMENT
  6
CONTINUOUS
100
AcDbLine
 10
13919.45931211232
 20
-191.3965918682564
 30
0.0
 11
13928.45931211232
 21
-191.3965918682546
 31
0.0
  0
LINE
  5
78
100
AcDbEntity
  8
MAINSEGMENT
  6
CONTINUOUS
100
AcDbLine
 10
13919.45931211232
 20
-156.3965918682564
 30
0.0
 11
13928.45931211232
 21
-156.3965918682562
 31
0.0
  0
LINE
  5
79
100
AcDbEntity
  8
AXES
  6
CONTINUOUS
100
AcDbLine
 10
14008.15479593565
 20
-166.3965918682518
 30
0.0
 11
13319.61779138255
 21
-166.3965918682505
 31
0.0
  0
LINE
  5
7A
100
AcDbEntity
  8
MAINSEGMENT
  6
CONTINUOUS
100
AcDbLine
 10
13810.45931211233
 20
-191.3965918682641
 30
0.0
 11
13810.45931211233
 21
-156.3965918682521
 31
0.0
  0
LINE
  5
7B
100
AcDbEntity
  8
MAINSEGMENT
  6
CONTINUOUS
100
AcDbLine
 10
13819.45931211233
 20
-191.3965918682623
 30
0.0
 11
13819.45931211233
 21
-156.3965918682518
 31
0.0
  0
LINE
  5
7C
100
AcDbEntity
  8
MAINSEGMENT
  6
CONTINUOUS
100
AcDbLine
 10
13810.45931211233
 20
-191.3965918682564
 30
0.0
 11
13819.45931211233
 21
-191.3965918682546
 31
0.0
  0
LINE
  5
7D
100
AcDbEntity
  8
MAINSEGMENT
  6
CONTINUOUS
100
AcDbLine
 10
13810.45931211233
 20
-156.3965918682564
 30
0.0
 11
13819.45931211233
 21
-156.3965918682562
 31
0.0
  0
LINE
  5
7E
100
AcDbEntity
  8
MAINSEGMENT
  6
CONTINUOUS
100
AcDbLine
 10
13784.45931211233
 20
-191.3965918682694
 30
0.0
 11
13784.45931211233
 21
-156.3965918682529
 31
0.0
  0
LINE
  5
7F
100
AcDbEntity
  8
MAINSEGMENT
  6
CONTINUOUS
100
AcDbLine
 10
13793.45931211233
 20
-191.3965918682676
 30
0.0
 11
13793.45931211233
 21
-156.3965918682526
 31
0.0
  0
LINE
  5
80
100
AcDbEntity
  8
MAINSEGMENT
  6
CONTINUOUS
100
AcDbLine
 10
13784.45931211233
 20
-191.3965918682564
 30
0.0
 11
13793.45931211233
 21
-191.3965918682546
 31
0.0
  0
LINE
  5
81
100
AcDbEntity
  8
MAINSEGMENT
  6
CONTINUOUS
100
AcDbLine
 10
13784.45931211233
 20
-156.3965918682564
 30
0.0
 11
13793.45931211233
 21
-156.3965918682562
 31
0.0
  0
LINE
  5
82
100
AcDbEntity
  8
MAINSEGMENT
  6
CONTINUOUS
100
AcDbLine
 10
13600.45931211233
 20
-191.3965918682641
 30
0.0
 11
13600.45931211232
 21
-156.3965918682521
 31
0.0
  0
LINE
  5
83
100
AcDbEntity
  8
MAINSEGMENT
  6
CONTINUOUS
100
AcDbLine
 10
13609.45931211233
 20
-191.3965918682623
 30
0.0
 11
13609.45931211232
 21
-156.3965918682518
 31
0.0
  0
LINE
  5
84
100
AcDbEntity
  8
MAINSEGMENT
  6
CONTINUOUS
100
AcDbLine
 10
13600.45931211232
 20
-191.3965918682564
 30
0.0
 11
13609.45931211233
 21
-191.3965918682546
 31
0.0
  0
LINE
  5
85
100
AcDbEntity
  8
MAINSEGMENT
  6
CONTINUOUS
100
AcDbLine
 10
13600.45931211232
 20
-156.3965918682564
 30
0.0
 11
13609.45931211232
 21
-156.3965918682562
 31
0.0
  0
LINE
  5
86
100
AcDbEntity
  8
MAINSEGMENT
  6
CONTINUOUS
100
AcDbLine
 10
13574.45931211233
 20
-191.3965918682694
 30
0.0
 11
13574.45931211233
 21
-156.3965918682529
 31
0.0
  0
LINE
  5
87
100
AcDbEntity
  8
MAINSEGMENT
  6
CONTINUOUS
100
AcDbLine
 10
13583.45931211232
 20
-191.3965918682676
 30
0.0
 11
13583.45931211232
 21
-156.3965918682526
 31
0.0
  0
LINE
  5
88
100
AcDbEntity
  8
MAINSEGMENT
  6
CONTINUOUS
100
AcDbLine
 10
13574.45931211232
 20
-191.3965918682564
 30
0.0
 11
13583.45931211233
 21
-191.3965918682546
 31
0.0
  0
LINE
  5
89
100
AcDbEntity
  8
MAINSEGMENT
  6
CONTINUOUS
100
AcDbLine
 10
13574.45931211232
 20
-156.3965918682564
 30
0.0
 11
13583.45931211232
 21
-156.3965918682562
 31
0.0
  0
LINE
  5
8A
100
AcDbEntity
  8
MAINSEGMENT
  6
CONTINUOUS
100
AcDbLine
 10
13390.45931211233
 20
-191.3965918682641
 30
0.0
 11
13390.45931211232
 21
-156.3965918682521
 31
0.0
  0
LINE
  5
8B
100
AcDbEntity
  8
MAINSEGMENT
  6
CONTINUOUS
100
AcDbLine
 10
13399.45931211233
 20
-191.3965918682623
 30
0.0
 11
13399.45931211232
 21
-156.3965918682518
 31
0.0
  0
LINE
  5
8C
100
AcDbEntity
  8
MAINSEGMENT
  6
CONTINUOUS
100
AcDbLine
 10
13390.45931211232
 20
-191.3965918682564
 30
0.0
 11
13399.45931211233
 21
-191.3965918682546
 31
0.0
  0
LINE
  5
8D
100
AcDbEntity
  8
MAINSEGMENT
  6
CONTINUOUS
100
AcDbLine
 10
13390.45931211232
 20
-156.3965918682564
 30
0.0
 11
13399.45931211233
 21
-156.3965918682562
 31
0.0
  0
LINE
  5
8E
100
AcDbEntity
  8
MAINSEGMENT
  6
CONTINUOUS
100
AcDbLine
 10
13364.45931211232
 20
-191.3965918682694
 30
0.0
 11
13364.45931211232
 21
-156.3965918682529
 31
0.0
  0
LINE
  5
8F
100
AcDbEntity
  8
MAINSEGMENT
  6
CONTINUOUS
100
AcDbLine
 10
13373.45931211233
 20
-191.3965918682676
 30
0.0
 11
13373.45931211233
 21
-156.3965918682526
 31
0.0
  0
LINE
  5
90
100
AcDbEntity
  8
MAINSEGMENT
  6
CONTINUOUS
100
AcDbLine
 10
13364.45931211232
 20
-191.3965918682564
 30
0.0
 11
13373.45931211233
 21
-191.3965918682546
 31
0.0
  0
LINE
  5
91
100
AcDbEntity
  8
MAINSEGMENT
  6
CONTINUOUS
100
AcDbLine
 10
13364.45931211232
 20
-156.3965918682564
 30
0.0
 11
13373.45931211233
 21
-156.3965918682562
 31
0.0
  0
LINE
  5
92
100
AcDbEntity
  8
MAINSEGMENT
  6
CONTINUOUS
100
AcDbLine
 10
13356.95931211231
 20
944.7485422160024
 30
0.0
 11
13961.95931211231
 21
944.7485422160024
 31
0.0
  0
LINE
  5
93
100
AcDbEntity
  8
MAINSEGMENT
  6
CONTINUOUS
100
AcDbLine
 10
13961.95931211231
 20
944.7485422160024
 30
0.0
 11
13961.95931211231
 21
289.7485422160024
 31
0.0
  0
LINE
  5
94
100
AcDbEntity
  8
MAINSEGMENT
  6
CONTINUOUS
100
AcDbLine
 10
13356.95931211231
 20
944.7485422160024
 30
0.0
 11
13356.95931211231
 21
289.7485422160024
 31
0.0
  0
LINE
  5
95
100
AcDbEntity
  8
MAINSEGMENT
  6
CONTINUOUS
100
AcDbLine
 10
13372.95931211231
 20
319.7485422160017
 30
0.0
 11
13372.95931211231
 21
289.7485422160024
 31
0.0
  0
LINE
  5
96
100
AcDbEntity
  8
MAINSEGMENT
  6
CONTINUOUS
100
AcDbLine
 10
13390.95931211231
 20
319.7485422160017
 30
0.0
 11
13390.95931211231
 21
289.7485422160024
 31
0.0
  0
LINE
  5
97
100
AcDbEntity
  8
MAINSEGMENT
  6
CONTINUOUS
100
AcDbLine
 10
13582.95931211232
 20
319.7485422160017
 30
0.0
 11
13582.95931211232
 21
289.7485422160024
 31
0.0
  0
LINE
  5
98
100
AcDbEntity
  8
MAINSEGMENT
  6
CONTINUOUS
100
AcDbLine
 10
13600.95931211231
 20
319.7485422160017
 30
0.0
 11
13600.95931211231
 21
289.7485422160024
 31
0.0
  0
LINE
  5
99
100
AcDbEntity
  8
MAINSEGMENT
  6
CONTINUOUS
100
AcDbLine
 10
13792.95931211231
 20
319.7485422160017
 30
0.0
 11
13792.95931211232
 21
289.7485422160024
 31
0.0
  0
LINE
  5
9A
100
AcDbEntity
  8
MAINSEGMENT
  6
CONTINUOUS
100
AcDbLine
 10
13810.95931211232
 20
319.7485422160017
 30
0.0
 11
13810.95931211232
 21
289.7485422160024
 31
0.0
  0
LINE
  5
9B
100
AcDbEntity
  8
MAINSEGMENT
  6
CONTINUOUS
100
AcDbLine
 10
13927.95931211232
 20
319.7485422160017
 30
0.0
 11
13927.95931211232
 21
289.7485422160024
 31
0.0
  0
LINE
  5
9C
100
AcDbEntity
  8
MAINSEGMENT
  6
CONTINUOUS
100
AcDbLine
 10
13945.95931211232
 20
319.7485422160017
 30
0.0
 11
13945.95931211232
 21
289.7485422160024
 31
0.0
  0
LINE
  5
9D
100
AcDbEntity
  8
MAINSEGMENT
  6
CONTINUOUS
100
AcDbLine
 10
13820.95931211232
 20
319.7485422160017
 30
0.0
 11
13820.95931211231
 21
289.7485422160024
 31
0.0
  0
LINE
  5
9E
100
AcDbEntity
  8
MAINSEGMENT
  6
CONTINUOUS
100
AcDbLine
 10
13917.95931211232
 20
319.7485422160017
 30
0.0
 11
13917.95931211232
 21
289.7485422160024
 31
0.0
  0
LINE
  5
9F
100
AcDbEntity
  8
MAINSEGMENT
  6
CONTINUOUS
100
AcDbLine
 10
13372.95931211232
 20
319.7485422160018
 30
0.0
 11
13390.95931211231
 21
319.7485422160004
 31
0.0
  0
LINE
  5
A0
100
AcDbEntity
  8
MAINSEGMENT
  6
CONTINUOUS
100
AcDbLine
 10
13582.95931211233
 20
319.7485422160029
 30
0.0
 11
13600.95931211233
 21
319.7485422160036
 31
0.0
  0
LINE
  5
A1
100
AcDbEntity
  8
MAINSEGMENT
  6
CONTINUOUS
100
AcDbLine
 10
13792.95931211231
 20
319.7485422160038
 30
0.0
 11
13810.95931211231
 21
319.7485422160127
 31
0.0
  0
LINE
  5
A2
100
AcDbEntity
  8
MAINSEGMENT
  6
CONTINUOUS
100
AcDbLine
 10
13820.95931211233
 20
319.7485422160035
 30
0.0
 11
13917.95931211232
 21
319.7485422160078
 31
0.0
  0
LINE
  5
A3
100
AcDbEntity
  8
MAINSEGMENT
  6
CONTINUOUS
100
AcDbLine
 10
13927.95931211231
 20
319.7485422160013
 30
0.0
 11
13945.95931211231
 21
319.7485422160045
 31
0.0
  0
LINE
  5
A4
100
AcDbEntity
  8
MAINSEGMENT
  6
CONTINUOUS
100
AcDbLine
 10
13356.95931211231
 20
289.7485422160024
 30
0.0
 11
13372.95931211232
 21
289.7485422159996
 31
0.0
  0
LINE
  5
A5
100
AcDbEntity
  8
MAINSEGMENT
  6
CONTINUOUS
100
AcDbLine
 10
13390.95931211231
 20
289.7485422160022
 30
0.0
 11
13582.95931211233
 21
289.7485422160018
 31
0.0
  0
LINE
  5
A6
100
AcDbEntity
  8
MAINSEGMENT
  6
CONTINUOUS
100
AcDbLine
 10
13600.95931211232
 20
289.7485422160026
 30
0.0
 11
13792.95931211231
 21
289.7485422160034
 31
0.0
  0
LINE
  5
A7
100
AcDbEntity
  8
MAINSEGMENT
  6
CONTINUOUS
100
AcDbLine
 10
13810.95931211231
 20
289.7485422160037
 30
0.0
 11
13820.95931211233
 21
289.7485422160022
 31
0.0
  0
LINE
  5
A8
100
AcDbEntity
  8
MAINSEGMENT
  6
CONTINUOUS
100
AcDbLine
 10
13917.95931211232
 20
289.7485422160029
 30
0.0
 11
13927.95931211231
 21
289.7485422160047
 31
0.0
  0
LINE
  5
A9
100
AcDbEntity
  8
MAINSEGMENT
  6
CONTINUOUS
100
AcDbLine
 10
13945.95931211232
 20
289.7485422160024
 30
0.0
 11
13961.95931211231
 21
289.7485422160024
 31
0.0
  0
LINE
  5
AA
100
AcDbEntity
  8
AXES
  6
CONTINUOUS
100
AcDbLine
 10
13936.95931211232
 20
319.0134141894512
 30
0.0
 11
13936.95931211232
 21
262.0873788666385
 31
0.0
  0
LINE
  5
AB
100
AcDbEntity
  8
AXES
  6
CONTINUOUS
100
AcDbLine
 10
13801.95931211231
 20
319.0134141894512
 30
0.0
 11
13801.95931211231
 21
262.0873788666385
 31
0.0
  0
LINE
  5
AC
100
AcDbEntity
  8
AXES
  6
CONTINUOUS
100
AcDbLine
 10
13591.95931211232
 20
319.0134141894512
 30
0.0
 11
13591.95931211232
 21
262.0873788666385
 31
0.0
  0
LINE
  5
AD
100
AcDbEntity
  8
AXES
  6
CONTINUOUS
100
AcDbLine
 10
13381.95931211232
 20
319.0134141894512
 30
0.0
 11
13381.95931211232
 21
262.0873788666385
 31
0.0
  0
LINE
  5
AE
100
AcDbEntity
  8
AXES
  6
CONTINUOUS
100
AcDbLine
 10
14003.1139225772
 20
289.7485422160027
 30
0.0
 11
13315.35166872424
 21
289.7485422159997
 31
0.0
  0
LINE
  5
AF
100
AcDbEntity
  8
MAINSEGMENT
  6
CONTINUOUS
100
AcDbLine
 10
13390.45931211233
 20
314.748542216015
 30
0.0
 11
13390.45931211232
 21
279.748542216003
 31
0.0
  0
LINE
  5
B0
100
AcDbEntity
  8
MAINSEGMENT
  6
CONTINUOUS
100
AcDbLine
 10
13399.45931211232
 20
289.7485422159854
 30
0.0
 11
13399.45931211232
 21
279.7485422160027
 31
0.0
  0
LINE
  5
B1
100
AcDbEntity
  8
MAINSEGMENT
  6
CONTINUOUS
100
AcDbLine
 10
13390.45931211232
 20
314.7485422160073
 30
0.0
 11
13390.95931211231
 21
314.7485422159895
 31
0.0
  0
LINE
  5
B2
100
AcDbEntity
  8
MAINSEGMENT
  6
CONTINUOUS
100
AcDbLine
 10
13390.45931211232
 20
279.7485422160073
 30
0.0
 11
13399.45931211233
 21
279.748542216007
 31
0.0
  0
LINE
  5
B3
100
AcDbEntity
  8
MAINSEGMENT
  6
CONTINUOUS
100
AcDbLine
 10
13364.45931211232
 20
289.7485422159915
 30
0.0
 11
13364.45931211232
 21
279.7485422160038
 31
0.0
  0
LINE
  5
B4
100
AcDbEntity
  8
MAINSEGMENT
  6
CONTINUOUS
100
AcDbLine
 10
13373.45931211233
 20
314.7485422160185
 30
0.0
 11
13373.45931211233
 21
279.7485422160035
 31
0.0
  0
LINE
  5
B5
100
AcDbEntity
  8
MAINSEGMENT
  6
CONTINUOUS
100
AcDbLine
 10
13372.95931211231
 20
314.7485422160257
 30
0.0
 11
13373.45931211233
 21
314.7485422160055
 31
0.0
  0
LINE
  5
B6
100
AcDbEntity
  8
MAINSEGMENT
  6
CONTINUOUS
100
AcDbLine
 10
13364.45931211232
 20
279.7485422160073
 30
0.0
 11
13373.45931211233
 21
279.748542216007
 31
0.0
  0
LINE
  5
B7
100
AcDbEntity
  8
MAINSEGMENT
  6
CONTINUOUS
100
AcDbLine
 10
13600.45931211233
 20
314.748542216015
 30
0.0
 11
13600.45931211232
 21
279.748542216003
 31
0.0
  0
LINE
  5
B8
100
AcDbEntity
  8
MAINSEGMENT
  6
CONTINUOUS
100
AcDbLine
 10
13609.45931211232
 20
289.7485422159854
 30
0.0
 11
13609.45931211232
 21
279.7485422160027
 31
0.0
  0
LINE
  5
B9
100
AcDbEntity
  8
MAINSEGMENT
  6
CONTINUOUS
100
AcDbLine
 10
13600.45931211232
 20
279.7485422160073
 30
0.0
 11
13609.45931211233
 21
279.748542216007
 31
0.0
  0
LINE
  5
BA
100
AcDbEntity
  8
MAINSEGMENT
  6
CONTINUOUS
100
AcDbLine
 10
13574.45931211232
 20
289.7485422159915
 30
0.0
 11
13574.45931211233
 21
279.7485422160038
 31
0.0
  0
LINE
  5
BB
100
AcDbEntity
  8
MAINSEGMENT
  6
CONTINUOUS
100
AcDbLine
 10
13583.45931211233
 20
314.7485422160185
 30
0.0
 11
13583.45931211233
 21
279.7485422160035
 31
0.0
  0
LINE
  5
BC
100
AcDbEntity
  8
MAINSEGMENT
  6
CONTINUOUS
100
AcDbLine
 10
13574.45931211232
 20
279.7485422160073
 30
0.0
 11
13583.45931211233
 21
279.748542216007
 31
0.0
  0
LINE
  5
BD
100
AcDbEntity
  8
MAINSEGMENT
  6
CONTINUOUS
100
AcDbLine
 10
13600.45931211232
 20
314.7485422160073
 30
0.0
 11
13600.95931211231
 21
314.7485422159895
 31
0.0
  0
LINE
  5
BE
100
AcDbEntity
  8
MAINSEGMENT
  6
CONTINUOUS
100
AcDbLine
 10
13582.95931211231
 20
314.7485422160257
 30
0.0
 11
13583.45931211233
 21
314.7485422160055
 31
0.0
  0
LINE
  5
BF
100
AcDbEntity
  8
MAINSEGMENT
  6
CONTINUOUS
100
AcDbLine
 10
13810.45931211233
 20
314.748542216015
 30
0.0
 11
13810.45931211232
 21
279.748542216003
 31
0.0
  0
LINE
  5
C0
100
AcDbEntity
  8
MAINSEGMENT
  6
CONTINUOUS
100
AcDbLine
 10
13819.45931211232
 20
289.7485422159854
 30
0.0
 11
13819.45931211232
 21
279.7485422160027
 31
0.0
  0
LINE
  5
C1
100
AcDbEntity
  8
MAINSEGMENT
  6
CONTINUOUS
100
AcDbLine
 10
13810.45931211232
 20
279.7485422160073
 30
0.0
 11
13819.45931211233
 21
279.748542216007
 31
0.0
  0
LINE
  5
C2
100
AcDbEntity
  8
MAINSEGMENT
  6
CONTINUOUS
100
AcDbLine
 10
13784.45931211232
 20
289.7485422159915
 30
0.0
 11
13784.45931211233
 21
279.7485422160038
 31
0.0
  0
LINE
  5
C3
100
AcDbEntity
  8
MAINSEGMENT
  6
CONTINUOUS
100
AcDbLine
 10
13793.45931211233
 20
314.7485422160185
 30
0.0
 11
13793.45931211233
 21
279.7485422160035
 31
0.0
  0
LINE
  5
C4
100
AcDbEntity
  8
MAINSEGMENT
  6
CONTINUOUS
100
AcDbLine
 10
13784.45931211232
 20
279.7485422160073
 30
0.0
 11
13793.45931211233
 21
279.748542216007
 31
0.0
  0
LINE
  5
C5
100
AcDbEntity
  8
MAINSEGMENT
  6
CONTINUOUS
100
AcDbLine
 10
13810.45931211232
 20
314.7485422160073
 30
0.0
 11
13810.95931211232
 21
314.7485422159895
 31
0.0
  0
LINE
  5
C6
100
AcDbEntity
  8
MAINSEGMENT
  6
CONTINUOUS
100
AcDbLine
 10
13792.95931211231
 20
314.7485422160257
 30
0.0
 11
13793.45931211233
 21
314.7485422160055
 31
0.0
  0
LINE
  5
C7
100
AcDbEntity
  8
MAINSEGMENT
  6
CONTINUOUS
100
AcDbLine
 10
13945.45931211233
 20
314.748542216015
 30
0.0
 11
13945.45931211233
 21
279.748542216003
 31
0.0
  0
LINE
  5
C8
100
AcDbEntity
  8
MAINSEGMENT
  6
CONTINUOUS
100
AcDbLine
 10
13954.45931211233
 20
289.7485422159854
 30
0.0
 11
13954.45931211233
 21
279.7485422160027
 31
0.0
  0
LINE
  5
C9
100
AcDbEntity
  8
MAINSEGMENT
  6
CONTINUOUS
100
AcDbLine
 10
13945.45931211233
 20
279.7485422160073
 30
0.0
 11
13954.45931211233
 21
279.748542216007
 31
0.0
  0
LINE
  5
CA
100
AcDbEntity
  8
MAINSEGMENT
  6
CONTINUOUS
100
AcDbLine
 10
13919.45931211232
 20
289.7485422159915
 30
0.0
 11
13919.45931211233
 21
279.7485422160038
 31
0.0
  0
LINE
  5
CB
100
AcDbEntity
  8
MAINSEGMENT
  6
CONTINUOUS
100
AcDbLine
 10
13928.45931211233
 20
314.7485422160185
 30
0.0
 11
13928.45931211233
 21
279.7485422160035
 31
0.0
  0
LINE
  5
CC
100
AcDbEntity
  8
MAINSEGMENT
  6
CONTINUOUS
100
AcDbLine
 10
13919.45931211233
 20
279.7485422160073
 30
0.0
 11
13928.45931211233
 21
279.748542216007
 31
0.0
  0
LINE
  5
CD
100
AcDbEntity
  8
MAINSEGMENT
  6
CONTINUOUS
100
AcDbLine
 10
13945.45931211233
 20
314.7485422160073
 30
0.0
 11
13945.95931211232
 21
314.7485422159895
 31
0.0
  0
LINE
  5
CE
100
AcDbEntity
  8
MAINSEGMENT
  6
CONTINUOUS
100
AcDbLine
 10
13927.95931211231
 20
314.7485422160257
 30
0.0
 11
13928.45931211233
 21
314.7485422160055
 31
0.0
  0
LINE
  5
CF
100
AcDbEntity
  8
MAINSEGMENT
  6
CONTINUOUS
100
AcDbLine
 10
15284.00622823894
 20
-1004.578235830944
 30
0.0
 11
14629.00622823894
 21
-1004.578235830944
 31
0.0
  0
LINE
  5
D0
100
AcDbEntity
  8
MAINSEGMENT
  6
CONTINUOUS
100
AcDbLine
 10
15284.00622823894
 20
-1009.578235830947
 30
0.0
 11
14629.00622823894
 21
-1009.578235830945
 31
0.0
  0
LINE
  5
D1
100
AcDbEntity
  8
MAINSEGMENT
  6
CONTINUOUS
100
AcDbLine
 10
14619.00622823895
 20
-1004.578235830943
 30
0.0
 11
14619.00622823894
 21
-994.5782358309466
 31
0.0
  0
LINE
  5
D2
100
AcDbEntity
  8
MAINSEGMENT
  6
CONTINUOUS
100
AcDbLine
 10
14619.00622823894
 20
-1004.578235830944
 30
0.0
 11
14654.00622823894
 21
-1004.578235830946
 31
0.0
  0
ARC
  5
D3
100
AcDbEntity
  8
MAINSEGMENT
  6
CONTINUOUS
100
AcDbCircle
 10
14629.00622823894
 20
-994.5782358309449
 30
0.0
 40
9.999999999999998
100
AcDbArc
 50
65.00000000000593
 51
180.0
  0
CIRCLE
  5
D4
100
AcDbEntity
  8
MAINSEGMENT
  6
CONTINUOUS
100
AcDbCircle
 10
14629.00622823894
 20
-994.5782358309449
 30
0.0
 40
4.999999999999999
  0
LINE
  5
D5
100
AcDbEntity
  8
MAINSEGMENT
  6
CONTINUOUS
100
AcDbLine
 10
14654.00622823894
 20
-1004.578235830946
 30
0.0
 11
14654.00622823894
 21
-995.2021480951934
 31
0.0
  0
LINE
  5
D6
100
AcDbEntity
  8
MAINSEGMENT
  6
CONTINUOUS
100
AcDbLine
 10
14633.23241085635
 20
-985.5151579605786
 30
0.0
 11
14654.00622823894
 21
-995.2021480951909
 31
0.0
  0
LINE
  5
D7
100
AcDbEntity
  8
AXES
  6
CONTINUOUS
100
AcDbLine
 10
14629.00622823894
 20
-1007.611154079091
 30
0.0
 11
14629.00622823894
 21
-979.6515834101477
 31
0.0
  0
LINE
  5
D8
100
AcDbEntity
  8
AXES
  6
CONTINUOUS
100
AcDbLine
 10
13149.62066676691
 20
-994.5782358309486
 30
0.0
 11
14147.67511490466
 21
-994.5782358309282
 31
0.0
  0
LINE
  5
D9
100
AcDbEntity
  8
MAINSEGMENT
  6
CONTINUOUS
100
AcDbLine
 10
13945.45931211231
 20
-1004.578235830944
 30
0.0
 11
13945.45931211231
 21
-984.5782358309422
 31
0.0
  0
LINE
  5
DA
100
AcDbEntity
  8
MAINSEGMENT
  6
CONTINUOUS
100
AcDbLine
 10
13954.45931211231
 20
-1004.578235830944
 30
0.0
 11
13954.45931211231
 21
-984.5782358309421
 31
0.0
  0
LINE
  5
DB
100
AcDbEntity
  8
MAINSEGMENT
  6
CONTINUOUS
100
AcDbLine
 10
13945.45931211231
 20
-1004.578235830946
 30
0.0
 11
13954.45931211231
 21
-1004.578235830944
 31
0.0
  0
LINE
  5
DC
100
AcDbEntity
  8
MAINSEGMENT
  6
CONTINUOUS
100
AcDbLine
 10
13945.45931211231
 20
-984.5782358309465
 30
0.0
 11
13954.45931211231
 21
-984.5782358309463
 31
0.0
  0
LINE
  5
DD
100
AcDbEntity
  8
MAINSEGMENT
  6
CONTINUOUS
100
AcDbLine
 10
13919.45931211233
 20
-994.5782358309969
 30
0.0
 11
13919.45931211231
 21
-984.5782358309431
 31
0.0
  0
LINE
  5
DE
100
AcDbEntity
  8
MAINSEGMENT
  6
CONTINUOUS
100
AcDbLine
 10
13928.45931211225
 20
-994.5782358309971
 30
0.0
 11
13928.45931211231
 21
-984.5782358309428
 31
0.0
  0
LINE
  5
DF
100
AcDbEntity
  8
MAINSEGMENT
  6
CONTINUOUS
100
AcDbLine
 10
13919.45931211231
 20
-1004.578235830946
 30
0.0
 11
13928.45931211232
 21
-1004.578235830944
 31
0.0
  0
LINE
  5
E0
100
AcDbEntity
  8
MAINSEGMENT
  6
CONTINUOUS
100
AcDbLine
 10
13919.45931211231
 20
-984.5782358309465
 30
0.0
 11
13928.45931211231
 21
-984.5782358309463
 31
0.0
  0
LINE
  5
E1
100
AcDbEntity
  8
MAINSEGMENT
  6
CONTINUOUS
100
AcDbLine
 10
13810.45931211231
 20
-1004.578235830944
 30
0.0
 11
13810.45931211231
 21
-984.5782358309422
 31
0.0
  0
LINE
  5
E2
100
AcDbEntity
  8
MAINSEGMENT
  6
CONTINUOUS
100
AcDbLine
 10
13819.45931211231
 20
-1004.578235830944
 30
0.0
 11
13819.45931211231
 21
-984.5782358309421
 31
0.0
  0
LINE
  5
E3
100
AcDbEntity
  8
MAINSEGMENT
  6
CONTINUOUS
100
AcDbLine
 10
13810.45931211231
 20
-1004.578235830946
 30
0.0
 11
13819.45931211231
 21
-1004.578235830944
 31
0.0
  0
LINE
  5
E4
100
AcDbEntity
  8
MAINSEGMENT
  6
CONTINUOUS
100
AcDbLine
 10
13810.45931211231
 20
-984.5782358309465
 30
0.0
 11
13819.45931211231
 21
-984.5782358309463
 31
0.0
  0
LINE
  5
E5
100
AcDbEntity
  8
MAINSEGMENT
  6
CONTINUOUS
100
AcDbLine
 10
13784.45931211231
 20
-1004.578235830944
 30
0.0
 11
13784.45931211231
 21
-984.5782358309431
 31
0.0
  0
LINE
  5
E6
100
AcDbEntity
  8
MAINSEGMENT
  6
CONTINUOUS
100
AcDbLine
 10
13793.45931211231
 20
-1004.578235830944
 30
0.0
 11
13793.45931211231
 21
-984.5782358309428
 31
0.0
  0
LINE
  5
E7
100
AcDbEntity
  8
MAINSEGMENT
  6
CONTINUOUS
100
AcDbLine
 10
13784.45931211231
 20
-1004.578235830946
 30
0.0
 11
13793.45931211231
 21
-1004.578235830944
 31
0.0
  0
LINE
  5
E8
100
AcDbEntity
  8
MAINSEGMENT
  6
CONTINUOUS
100
AcDbLine
 10
13784.45931211231
 20
-984.5782358309465
 30
0.0
 11
13793.45931211231
 21
-984.5782358309463
 31
0.0
  0
LINE
  5
E9
100
AcDbEntity
  8
MAINSEGMENT
  6
CONTINUOUS
100
AcDbLine
 10
13600.45931211231
 20
-1004.578235830944
 30
0.0
 11
13600.45931211231
 21
-984.5782358309422
 31
0.0
  0
LINE
  5
EA
100
AcDbEntity
  8
MAINSEGMENT
  6
CONTINUOUS
100
AcDbLine
 10
13609.45931211231
 20
-1004.578235830944
 30
0.0
 11
13609.45931211231
 21
-984.5782358309421
 31
0.0
  0
LINE
  5
EB
100
AcDbEntity
  8
MAINSEGMENT
  6
CONTINUOUS
100
AcDbLine
 10
13600.45931211231
 20
-1004.578235830946
 30
0.0
 11
13609.45931211231
 21
-1004.578235830944
 31
0.0
  0
LINE
  5
EC
100
AcDbEntity
  8
MAINSEGMENT
  6
CONTINUOUS
100
AcDbLine
 10
13600.45931211231
 20
-984.5782358309465
 30
0.0
 11
13609.45931211231
 21
-984.5782358309463
 31
0.0
  0
LINE
  5
ED
100
AcDbEntity
  8
MAINSEGMENT
  6
CONTINUOUS
100
AcDbLine
 10
13574.45931211231
 20
-1004.578235830944
 30
0.0
 11
13574.45931211231
 21
-984.5782358309431
 31
0.0
  0
LINE
  5
EE
100
AcDbEntity
  8
MAINSEGMENT
  6
CONTINUOUS
100
AcDbLine
 10
13583.45931211231
 20
-1004.578235830944
 30
0.0
 11
13583.45931211231
 21
-984.5782358309428
 31
0.0
  0
LINE
  5
EF
100
AcDbEntity
  8
MAINSEGMENT
  6
CONTINUOUS
100
AcDbLine
 10
13574.45931211231
 20
-1004.578235830946
 30
0.0
 11
13583.45931211231
 21
-1004.578235830944
 31
0.0
  0
LINE
  5
F0
100
AcDbEntity
  8
MAINSEGMENT
  6
CONTINUOUS
100
AcDbLine
 10
13574.45931211231
 20
-984.5782358309465
 30
0.0
 11
13583.45931211231
 21
-984.5782358309463
 31
0.0
  0
LINE
  5
F1
100
AcDbEntity
  8
MAINSEGMENT
  6
CONTINUOUS
100
AcDbLine
 10
13390.45931211231
 20
-1004.578235830944
 30
0.0
 11
13390.45931211231
 21
-984.5782358309422
 31
0.0
  0
LINE
  5
F2
100
AcDbEntity
  8
MAINSEGMENT
  6
CONTINUOUS
100
AcDbLine
 10
13399.45931211231
 20
-1004.578235830944
 30
0.0
 11
13399.4593121123
 21
-984.5782358309421
 31
0.0
  0
LINE
  5
F3
100
AcDbEntity
  8
MAINSEGMENT
  6
CONTINUOUS
100
AcDbLine
 10
13390.45931211231
 20
-1004.578235830946
 30
0.0
 11
13399.45931211231
 21
-1004.578235830944
 31
0.0
  0
LINE
  5
F4
100
AcDbEntity
  8
MAINSEGMENT
  6
CONTINUOUS
100
AcDbLine
 10
13390.45931211231
 20
-984.5782358309465
 30
0.0
 11
13399.45931211231
 21
-984.5782358309463
 31
0.0
  0
LINE
  5
F5
100
AcDbEntity
  8
MAINSEGMENT
  6
CONTINUOUS
100
AcDbLine
 10
13364.45931211231
 20
-1004.578235830944
 30
0.0
 11
13364.45931211231
 21
-984.5782358309431
 31
0.0
  0
LINE
  5
F6
100
AcDbEntity
  8
MAINSEGMENT
  6
CONTINUOUS
100
AcDbLine
 10
13373.45931211231
 20
-1004.578235830944
 30
0.0
 11
13373.45931211231
 21
-984.5782358309428
 31
0.0
  0
LINE
  5
F7
100
AcDbEntity
  8
MAINSEGMENT
  6
CONTINUOUS
100
AcDbLine
 10
13364.45931211231
 20
-1004.578235830946
 30
0.0
 11
13373.45931211231
 21
-1004.578235830944
 31
0.0
  0
LINE
  5
F8
100
AcDbEntity
  8
MAINSEGMENT
  6
CONTINUOUS
100
AcDbLine
 10
13364.45931211231
 20
-984.5782358309465
 30
0.0
 11
13373.45931211231
 21
-984.5782358309463
 31
0.0
  0
LINE
  5
F9
100
AcDbEntity
  8
MAINSEGMENT
  6
CONTINUOUS
100
AcDbLine
 10
13356.95931211231
 20
914.7485422160023
 30
0.0
 11
13931.95931211232
 21
914.7485422160018
 31
0.0
  0
LINE
  5
FA
100
AcDbEntity
  8
MAINSEGMENT
  6
CONTINUOUS
100
AcDbLine
 10
13931.95931211232
 20
914.7485422160023
 30
0.0
 11
13931.95931211232
 21
329.7485422160223
 31
0.0
  0
LINE
  5
FB
100
AcDbEntity
  8
MAINSEGMENT
  6
CONTINUOUS
100
AcDbLine
 10
13931.95931211232
 20
914.7485422160023
 30
0.0
 11
13961.95931211231
 21
944.7485422160024
 31
0.0
  0
CIRCLE
  5
FC
100
AcDbEntity
  8
MAINSEGMENT
  6
CONTINUOUS
100
AcDbCircle
 10
13371.95931211231
 20
924.7485422160027
 30
0.0
 40
4.999999999999999
  0
CIRCLE
  5
FD
100
AcDbEntity
  8
MAINSEGMENT
  6
CONTINUOUS
100
AcDbCircle
 10
13481.95931211232
 20
924.7485422160027
 30
0.0
 40
4.999999999999999
  0
CIRCLE
  5
FE
100
AcDbEntity
  8
MAINSEGMENT
  6
CONTINUOUS
100
AcDbCircle
 10
13591.95931211232
 20
924.7485422160027
 30
0.0
 40
4.999999999999999
  0
CIRCLE
  5
FF
100
AcDbEntity
  8
MAINSEGMENT
  6
CONTINUOUS
100
AcDbCircle
 10
13701.95931211232
 20
924.7485422160027
 30
0.0
 40
4.999999999999999
  0
CIRCLE
  5
100
100
AcDbEntity
  8
MAINSEGMENT
  6
CONTINUOUS
100
AcDbCircle
 10
13811.95931211232
 20
924.7485422160027
 30
0.0
 40
4.999999999999999
  0
CIRCLE
  5
101
100
AcDbEntity
  8
MAINSEGMENT
  6
CONTINUOUS
100
AcDbCircle
 10
13921.95931211232
 20
924.7485422160027
 30
0.0
 40
4.999999999999999
  0
CIRCLE
  5
102
100
AcDbEntity
  8
MAINSEGMENT
  6
CONTINUOUS
100
AcDbCircle
 10
13371.95931211231
 20
-801.3965918682513
 30
0.0
 40
3.5
  0
CIRCLE
  5
103
100
AcDbEntity
  8
MAINSEGMENT
  6
CONTINUOUS
100
AcDbCircle
 10
13481.95931211232
 20
-801.3965918682513
 30
0.0
 40
3.5
  0
CIRCLE
  5
104
100
AcDbEntity
  8
MAINSEGMENT
  6
CONTINUOUS
100
AcDbCircle
 10
13591.95931211232
 20
-801.3965918682513
 30
0.0
 40
3.5
  0
CIRCLE
  5
105
100
AcDbEntity
  8
MAINSEGMENT
  6
CONTINUOUS
100
AcDbCircle
 10
13701.95931211232
 20
-801.3965918682513
 30
0.0
 40
3.5
  0
CIRCLE
  5
106
100
AcDbEntity
  8
MAINSEGMENT
  6
CONTINUOUS
100
AcDbCircle
 10
13811.95931211232
 20
-801.3965918682513
 30
0.0
 40
3.5
  0
CIRCLE
  5
107
100
AcDbEntity
  8
MAINSEGMENT
  6
CONTINUOUS
100
AcDbCircle
 10
13921.95931211232
 20
-801.3965918682513
 30
0.0
 40
3.5
  0
LINE
  5
108
100
AcDbEntity
  8
MAINSEGMENT
  6
CONTINUOUS
100
AcDbLine
 10
13356.95931211231
 20
942.7485422160023
 30
0.0
 11
13959.95931211228
 21
942.7485422160016
 31
0.0
  0
LINE
  5
109
100
AcDbEntity
  8
MAINSEGMENT
  6
CONTINUOUS
100
AcDbLine
 10
13959.95931211231
 20
942.7485422160355
 30
0.0
 11
13959.95931211232
 21
329.7485422160221
 31
0.0
  0
LINE
  5
10A
100
AcDbEntity
  8
MAINSEGMENT
  6
CONTINUOUS
100
AcDbLine
 10
13931.95931211232
 20
329.7485422160223
 30
0.0
 11
13961.95931211231
 21
329.7485422160024
 31
0.0
  0
LINE
  5
10B
100
AcDbEntity
  8
MAINSEGMENT
  6
CONTINUOUS
100
AcDbLine
 10
12576.14940800146
 20
-1004.578235830944
 30
0.0
 11
13231.14940800146
 21
-1004.578235830944
 31
0.0
  0
LINE
  5
10C
100
AcDbEntity
  8
MAINSEGMENT
  6
CONTINUOUS
100
AcDbLine
 10
12576.14940800146
 20
-1029.578235830946
 30
0.0
 11
13191.14940800146
 21
-1029.578235830944
 31
0.0
  0
LINE
  5
10D
100
AcDbEntity
  8
MAINSEGMENT
  6
CONTINUOUS
100
AcDbLine
 10
13231.14940800145
 20
-1009.578235830944
 30
0.0
 11
13231.14940800146
 21
-1004.578235830944
 31
0.0
  0
LINE
  5
10E
100
AcDbEntity
  8
MAINSEGMENT
  6
CONTINUOUS
100
AcDbLine
 10
12576.14940800146
 20
-1004.578235830944
 30
0.0
 11
12576.14940800146
 21
-1029.578235830945
 31
0.0
  0
LINE
  5
10F
100
AcDbEntity
  8
MAINSEGMENT
  6
CONTINUOUS
100
AcDbLine
 10
12576.14940800146
 20
-1009.578235830947
 30
0.0
 11
13231.14940800146
 21
-1009.578235830945
 31
0.0
  0
LINE
  5
110
100
AcDbEntity
  8
MAINSEGMENT
  6
CONTINUOUS
100
AcDbLine
 10
13241.14940800146
 20
-1004.578235830943
 30
0.0
 11
13241.14940800146
 21
-994.5782358309466
 31
0.0
  0
LINE
  5
111
100
AcDbEntity
  8
MAINSEGMENT
  6
CONTINUOUS
100
AcDbLine
 10
13241.14940800146
 20
-1004.578235830944
 30
0.0
 11
13206.14940800146
 21
-1004.578235830946
 31
0.0
  0
ARC
  5
112
100
AcDbEntity
  8
MAINSEGMENT
  6
CONTINUOUS
100
AcDbCircle
 10
13231.14940800146
 20
-994.5782358309449
 30
0.0
 40
9.999999999999998
100
AcDbArc
 50
0.0
 51
114.999999999994
  0
CIRCLE
  5
113
100
AcDbEntity
  8
MAINSEGMENT
  6
CONTINUOUS
100
AcDbCircle
 10
13231.14940800146
 20
-994.5782358309449
 30
0.0
 40
4.999999999999999
  0
LINE
  5
114
100
AcDbEntity
  8
MAINSEGMENT
  6
CONTINUOUS
100
AcDbLine
 10
13206.14940800146
 20
-1004.578235830946
 30
0.0
 11
13206.14940800146
 21
-995.2021480951934
 31
0.0
  0
LINE
  5
115
100
AcDbEntity
  8
MAINSEGMENT
  6
CONTINUOUS
100
AcDbLine
 10
13226.92322538405
 20
-985.5151579605786
 30
0.0
 11
13206.14940800147
 21
-995.2021480951909
 31
0.0
  0
LINE
  5
116
100
AcDbEntity
  8
MAINSEGMENT
  6
CONTINUOUS
100
AcDbLine
 10
13191.14940800146
 20
-1029.578235830945
 30
0.0
 11
13191.14940800149
 21
-1009.578235830944
 31
0.0
  0
LINE
  5
117
100
AcDbEntity
  8
MAINSEGMENT
  6
CONTINUOUS
100
AcDbLine
 10
15284.00622823894
 20
-1009.578235830947
 30
0.0
 11
15284.00622823894
 21
-1004.578235830944
 31
0.0
  0
LINE
  5
118
100
AcDbEntity
  8
MAINSEGMENT
  6
CONTINUOUS
100
AcDbLine
 10
14629.00622823894
 20
-1009.578235830945
 30
0.0
 11
14629.00622823894
 21
-1004.578235830945
 31
0.0
  0
LINE
  5
119
100
AcDbEntity
  8
AXES
  6
CONTINUOUS
100
AcDbLine
 10
13231.14940800146
 20
-1007.611154079091
 30
0.0
 11
13231.14940800146
 21
-979.6515834101477
 31
0.0
  0
LINE
  5
11A
100
AcDbEntity
  8
AXES
  6
CONTINUOUS
100
AcDbLine
 10
13936.95931211233
 20
-1035.961685554588
 30
0.0
 11
13936.95931211233
 21
-979.0356502317756
 31
0.0
  0
LINE
  5
11B
100
AcDbEntity
  8
AXES
  6
CONTINUOUS
100
AcDbLine
 10
13801.95931211233
 20
-1035.961685554588
 30
0.0
 11
13801.95931211233
 21
-979.0356502317756
 31
0.0
  0
LINE
  5
11C
100
AcDbEntity
  8
AXES
  6
CONTINUOUS
100
AcDbLine
 10
13591.95931211233
 20
-1035.961685554588
 30
0.0
 11
13591.95931211233
 21
-979.0356502317756
 31
0.0
  0
LINE
  5
11D
100
AcDbEntity
  8
AXES
  6
CONTINUOUS
100
AcDbLine
 10
13381.95931211231
 20
-1016.696813581139
 30
0.0
 11
13381.95931211233
 21
-979.0356502317756
 31
0.0
  0
LINE
  5
11E
100
AcDbEntity
  8
MAINSEGMENT
  6
CONTINUOUS
100
AcDbLine
 10
15284.00622823894
 20
-1009.578235830947
 30
0.0
 11
15284.00622823894
 21
-1029.578235830947
 31
0.0
  0
LINE
  5
11F
100
AcDbEntity
  8
MAINSEGMENT
  6
CONTINUOUS
100
AcDbLine
 10
12863.14940800145
 20
-994.5782358309452
 30
0.0
 11
12903.14940800145
 21
-994.5782358309452
 31
0.0
  0
LINE
  5
120
100
AcDbEntity
  8
MAINSEGMENT
  6
CONTINUOUS
100
AcDbLine
 10
12903.14940800145
 20
-994.5782358309452
 30
0.0
 11
12903.14940800145
 21
-1004.578235830945
 31
0.0
  0
LINE
  5
121
100
AcDbEntity
  8
MAINSEGMENT
  6
CONTINUOUS
100
AcDbLine
 10
12863.14940800145
 20
-994.5782358309452
 30
0.0
 11
12863.14940800145
 21
-1004.578235830945
 31
0.0
  0
LINE
  5
122
100
AcDbEntity
  8
AXES
  6
CONTINUOUS
100
AcDbLine
 10
12883.14940800145
 20
-982.948432797006
 30
0.0
 11
12883.14940800147
 21
-1020.610909463199
 31
0.0
  0
LINE
  5
123
100
AcDbEntity
  8
MAINSEGMENT
  6
CONTINUOUS
100
AcDbLine
 10
12899.6494080015
 20
-998.5782358309457
 30
0.0
 11
12899.64940800145
 21
-1004.578235830945
 31
0.0
  0
LINE
  5
124
100
AcDbEntity
  8
MAINSEGMENT
  6
CONTINUOUS
100
AcDbLine
 10
12866.64940800138
 20
-998.578235830941
 30
0.0
 11
12866.64940800145
 21
-1004.578235830945
 31
0.0
  0
LINE
  5
125
100
AcDbEntity
  8
MAINSEGMENT
  6
CONTINUOUS
100
AcDbLine
 10
12866.64940800138
 20
-998.57823583094
 30
0.0
 11
12899.64940800148
 21
-998.5782358309457
 31
0.0
  0
LINE
  5
126
100
AcDbEntity
  8
MAINSEGMENT
  6
CONTINUOUS
100
AcDbLine
 10
12866.64940800145
 20
-1004.578235830945
 30
0.0
 11
12863.14940800145
 21
-1004.578235830945
 31
0.0
  0
LINE
  5
127
100
AcDbEntity
  8
MAINSEGMENT
  6
CONTINUOUS
100
AcDbLine
 10
12903.14940800145
 20
-1004.578235830945
 30
0.0
 11
12899.64940800145
 21
-1004.578235830945
 31
0.0
  0
LWPOLYLINE
  5
128
100
AcDbEntity
  8
MAINSEGMENT
  6
CONTINUOUS
100
AcDbPolyline
 90
        4
 70
     1
 43
0.0
 10
13919.3549046341
 20
-534.3965918682516
 10
13929.3549046341
 20
-534.3965918682516
 10
13929.3549046341
 20
-494.3965918682517
 10
13919.3549046341
 20
-494.3965918682517
  0
LWPOLYLINE
  5
129
100
AcDbEntity
  8
MAINSEGMENT
  6
CONTINUOUS
100
AcDbPolyline
 90
        4
 70
     0
 43
0.0
 10
13929.35490463409
 20
-1004.578235830944
 10
13929.3549046341
 20
-994.5782358309426
 10
13919.3549046341
 20
-994.5782358309426
 10
13919.35490463412
 20
-1004.578235830944
  0
LINE
  5
12A
100
AcDbEntity
  8
MAINSEGMENT
  6
CONTINUOUS
100
AcDbLine
 10
13404.95931211234
 20
-1029.578235830945
 30
0.0
 11
13404.95931211234
 21
-1009.578235830945
 31
0.0
  0
LINE
  5
12B
100
AcDbEntity
  8
MAINSEGMENT
  6
CONTINUOUS
100
AcDbLine
 10
13378.9593121123
 20
-1029.578235830945
 30
0.0
 11
13378.95931211232
 21
-1009.578235830945
 31
0.0
  0
LINE
  5
12C
100
AcDbEntity
  8
MAINSEGMENT
  6
CONTINUOUS
100
AcDbLine
 10
13382.95931211222
 20
-836.3965918682515
 30
0.0
 11
13400.95931211235
 21
-836.3965918682515
 31
0.0
  0
LINE
  5
12D
100
AcDbEntity
  8
MAINSEGMENT
  6
CONTINUOUS
100
AcDbLine
 10
13404.95931211234
 20
-832.39659186825
 30
0.0
 11
13404.95931211234
 21
-828.3965918682161
 31
0.0
  0
ARC
  5
12E
100
AcDbEntity
  8
MAINSEGMENT
  6
CONTINUOUS
100
AcDbCircle
 10
13400.95931211235
 20
-832.3965918682512
 30
0.0
 40
3.999999999999999
100
AcDbArc
 50
270.0
 51
0.0000000000181455
  0
LINE
  5
12F
100
AcDbEntity
  8
MAINSEGMENT
  6
CONTINUOUS
100
AcDbLine
 10
13382.95931211222
 20
-834.8965918682516
 30
0.0
 11
13400.95931211237
 21
-834.8965918682516
 31
0.0
  0
LINE
  5
130
100
AcDbEntity
  8
MAINSEGMENT
  6
CONTINUOUS
100
AcDbLine
 10
13403.45931211234
 20
-832.39659186825
 30
0.0
 11
13403.45931211234
 21
-828.3965918682556
 31
0.0
  0
ARC
  5
131
100
AcDbEntity
  8
MAINSEGMENT
  6
CONTINUOUS
100
AcDbCircle
 10
13400.95931211237
 20
-832.3965918682828
 30
0.0
 40
2.499999999999999
100
AcDbArc
 50
270.0
 51
0.0000000000289369
  0
ARC
  5
132
100
AcDbEntity
  8
MAINSEGMENT
  6
CONTINUOUS
100
AcDbCircle
 10
13410.45931211239
 20
-828.3965918682522
 30
0.0
 40
7.0
100
AcDbArc
 50
90.0000000000001
 51
180.0000000000295
  0
LWPOLYLINE
  5
133
100
AcDbEntity
  8
MAINSEGMENT
  6
CONTINUOUS
100
AcDbPolyline
 90
        2
 70
     0
 43
0.0
 10
13424.95931211232
 20
-822.8965918682515
 10
13424.95931211236
 20
-821.3965918682514
  0
ARC
  5
134
100
AcDbEntity
  8
MAINSEGMENT
  6
CONTINUOUS
100
AcDbCircle
 10
13410.45931211235
 20
-828.3965918682133
 30
0.0
 40
5.5
100
AcDbArc
 50
90.00000000000005
 51
180.00000000003
  0
LINE
  5
135
100
AcDbEntity
  8
MAINSEGMENT
  6
CONTINUOUS
100
AcDbLine
 10
13424.95931211249
 20
-822.8965918683064
 30
0.0
 11
13410.45931211235
 21
-822.8965918682515
 31
0.0
  0
LINE
  5
136
100
AcDbEntity
  8
MAINSEGMENT
  6
CONTINUOUS
100
AcDbLine
 10
13378.95931211227
 20
-832.3965918682528
 30
0.0
 11
13378.95931211227
 21
-828.396591868219
 31
0.0
  0
ARC
  5
137
100
AcDbEntity
  8
MAINSEGMENT
  6
CONTINUOUS
100
AcDbCircle
 10
13382.95931211226
 20
-832.3965918682528
 30
0.0
 40
3.999999999999999
100
AcDbArc
 50
179.9999999999936
 51
270.0000000000116
  0
LINE
  5
138
100
AcDbEntity
  8
MAINSEGMENT
  6
CONTINUOUS
100
AcDbLine
 10
13380.45931211227
 20
-832.3965918682525
 30
0.0
 11
13380.45931211228
 21
-828.396591868258
 31
0.0
  0
ARC
  5
139
100
AcDbEntity
  8
MAINSEGMENT
  6
CONTINUOUS
100
AcDbCircle
 10
13382.95931211224
 20
-832.3965918682848
 30
0.0
 40
2.499999999999999
100
AcDbArc
 50
179.9999999999827
 51
270.0000000000116
  0
ARC
  5
13A
100
AcDbEntity
  8
MAINSEGMENT
  6
CONTINUOUS
100
AcDbCircle
 10
13373.45931211223
 20
-828.3965918682559
 30
0.0
 40
7.0
100
AcDbArc
 50
359.9999999999822
 51
90.00000000001161
  0
LWPOLYLINE
  5
13B
100
AcDbEntity
  8
MAINSEGMENT
  6
CONTINUOUS
100
AcDbPolyline
 90
        2
 70
     0
 43
0.0
 10
13358.95931211229
 20
-822.8965918682586
 10
13358.95931211224
 20
-821.3965918682587
  0
ARC
  5
13C
100
AcDbEntity
  8
MAINSEGMENT
  6
CONTINUOUS
100
AcDbCircle
 10
13373.45931211227
 20
-828.396591868217
 30
0.0
 40
5.5
100
AcDbArc
 50
359.9999999999816
 51
90.00000000001167
  0
LINE
  5
13D
100
AcDbEntity
  8
MAINSEGMENT
  6
CONTINUOUS
100
AcDbLine
 10
13358.95931211273
 20
-822.8965918682316
 30
0.0
 11
13373.45931211226
 21
-822.8965918682552
 31
0.0
  0
LINE
  5
13E
100
AcDbEntity
  8
MAINSEGMENT
  6
CONTINUOUS
100
AcDbLine
 10
15299.00622823898
 20
-1011.958650070565
 30
0.0
 11
15299.0062282389
 21
-1027.197821591216
 31
0.0
  0
LINE
  5
13F
100
AcDbEntity
  8
MAINSEGMENT
  6
CONTINUOUS
100
AcDbLine
 10
15285.50622823897
 20
-1009.578235830947
 30
0.0
 11
15285.50622823894
 21
-1029.578235830945
 31
0.0
  0
LINE
  5
140
100
AcDbEntity
  8
MAINSEGMENT
  6
CONTINUOUS
100
AcDbLine
 10
15285.50622823894
 20
-1029.578235830945
 30
0.0
 11
15284.00622823894
 21
-1029.578235830945
 31
0.0
  0
LINE
  5
141
100
AcDbEntity
  8
MAINSEGMENT
  6
CONTINUOUS
100
AcDbLine
 10
15285.50622823897
 20
-1009.578235830947
 30
0.0
 11
15284.00622823894
 21
-1009.578235830947
 31
0.0
  0
LINE
  5
142
100
AcDbEntity
  8
MAINSEGMENT
  6
CONTINUOUS
100
AcDbLine
 10
15285.50622823894
 20
-1029.578235830945
 30
0.0
 11
15299.0062282389
 21
-1027.197821591273
 31
0.0
  0
LINE
  5
143
100
AcDbEntity
  8
MAINSEGMENT
  6
CONTINUOUS
100
AcDbLine
 10
15285.50622823894
 20
-1009.578235830947
 30
0.0
 11
15299.0062282389
 21
-1011.95865007062
 31
0.0
  0
LINE
  5
144
100
AcDbEntity
  8
MAINSEGMENT
  6
CONTINUOUS
100
AcDbLine
 10
13378.95931211228
 20
-1011.958650070588
 30
0.0
 11
13404.95931211226
 21
-1011.958650070564
 31
0.0
  0
LINE
  5
145
100
AcDbEntity
  8
MAINSEGMENT
  6
CONTINUOUS
100
AcDbLine
 10
13378.95931211226
 20
-1027.197821590997
 30
0.0
 11
13404.95931211227
 21
-1027.197821591215
 31
0.0
  0
LINE
  5
146
100
AcDbEntity
  8
MAINSEGMENT
  6
CONTINUOUS
100
AcDbLine
 10
13380.45931211232
 20
-1011.958650070515
 30
0.0
 11
13380.45931211232
 21
-1009.578235830945
 31
0.0
  0
LINE
  5
147
100
AcDbEntity
  8
MAINSEGMENT
  6
CONTINUOUS
100
AcDbLine
 10
13403.4593121123
 20
-1011.958650070512
 30
0.0
 11
13403.4593121123
 21
-1009.578235830943
 31
0.0
  0
LINE
  5
148
100
AcDbEntity
  8
MAINSEGMENT
  6
CONTINUOUS
100
AcDbLine
 10
13403.4593121123
 20
-1027.197821591378
 30
0.0
 11
13403.4593121123
 21
-1029.578235830947
 31
0.0
  0
LINE
  5
149
100
AcDbEntity
  8
MAINSEGMENT
  6
CONTINUOUS
100
AcDbLine
 10
13380.45931211232
 20
-1027.197821591376
 30
0.0
 11
13380.45931211232
 21
-1029.578235830945
 31
0.0
  0
TEXT
  5
14B
100
AcDbEntity
  8
COMMENTS
  6
CONTINUOUS
100
AcDbText
 10
14256.43738656693
 20
65.72940476056512
 30
0.0
 40
76.88032662602641
  1
Front left mudguard
 41
0.6000000000000001
  7
ARIAL
 11
14256.43738656693
 21
65.72940476056512
 31
0.0
100
AcDbText
 73
     1
  0
TEXT
  5
14C
100
AcDbEntity
  8
COMMENTS
  6
CONTINUOUS
100
AcDbText
 10
14256.43738656693
 20
-49.59108517847451
 30
-115.3204899390396
 40
76.88032662602641
  1
Standard pattern
 41
0.6000000000000001
  7
ARIAL
 11
14256.43738656693
 21
-49.59108517847451
 31
-115.3204899390396
100
AcDbText
 73
     1
  0
LINE
  5
14D
100
AcDbEntity
  8
MAINSEGMENT
  6
CONTINUOUS
100
AcDbLine
 10
13382.95931211222
 20
959.7485422160003
 30
0.0
 11
13400.95931211235
 21
959.7485422160003
 31
0.0
  0
LINE
  5
14E
100
AcDbEntity
  8
MAINSEGMENT
  6
CONTINUOUS
100
AcDbLine
 10
13404.95931211234
 20
955.7485422159988
 30
0.0
 11
13404.95931211234
 21
951.748542215965
 31
0.0
  0
ARC
  5
14F
100
AcDbEntity
  8
MAINSEGMENT
  6
CONTINUOUS
100
AcDbCircle
 10
13400.95931211235
 20
955.7485422159999
 30
0.0
 40
3.999999999999999
100
AcDbArc
 50
359.9999999999818
 51
89.99999999999994
  0
LINE
  5
150
100
AcDbEntity
  8
MAINSEGMENT
  6
CONTINUOUS
100
AcDbLine
 10
13382.95931211222
 20
958.2485422160003
 30
0.0
 11
13400.95931211237
 21
958.2485422160003
 31
0.0
  0
LINE
  5
151
100
AcDbEntity
  8
MAINSEGMENT
  6
CONTINUOUS
100
AcDbLine
 10
13403.45931211234
 20
955.7485422159988
 30
0.0
 11
13403.45931211234
 21
951.7485422160044
 31
0.0
  0
ARC
  5
152
100
AcDbEntity
  8
MAINSEGMENT
  6
CONTINUOUS
100
AcDbCircle
 10
13400.95931211237
 20
955.7485422160317
 30
0.0
 40
2.499999999999999
100
AcDbArc
 50
359.999999999971
 51
89.99999999999994
  0
ARC
  5
153
100
AcDbEntity
  8
MAINSEGMENT
  6
CONTINUOUS
100
AcDbCircle
 10
13410.45931211239
 20
951.7485422160008
 30
0.0
 40
7.0
100
AcDbArc
 50
179.9999999999704
 51
269.9999999999998
  0
LWPOLYLINE
  5
154
100
AcDbEntity
  8
MAINSEGMENT
  6
CONTINUOUS
100
AcDbPolyline
 90
        2
 70
     0
 43
0.0
 10
13424.95931211232
 20
946.2485422160002
 10
13424.95931211236
 20
944.7485422160003
  0
ARC
  5
155
100
AcDbEntity
  8
MAINSEGMENT
  6
CONTINUOUS
100
AcDbCircle
 10
13410.45931211235
 20
951.7485422159619
 30
0.0
 40
5.5
100
AcDbArc
 50
179.9999999999699
 51
269.9999999999999
  0
LINE
  5
156
100
AcDbEntity
  8
MAINSEGMENT
  6
CONTINUOUS
100
AcDbLine
 10
13424.95931211276
 20
946.248542216028
 30
0.0
 11
13410.45931211235
 21
946.2485422160002
 31
0.0
  0
LINE
  5
157
100
AcDbEntity
  8
MAINSEGMENT
  6
CONTINUOUS
100
AcDbLine
 10
13378.95931211227
 20
955.7485422160015
 30
0.0
 11
13378.95931211227
 21
951.7485422159676
 31
0.0
  0
ARC
  5
158
100
AcDbEntity
  8
MAINSEGMENT
  6
CONTINUOUS
100
AcDbCircle
 10
13382.95931211226
 20
955.7485422160016
 30
0.0
 40
3.999999999999999
100
AcDbArc
 50
89.99999999998829
 51
180.0000000000063
  0
LINE
  5
159
100
AcDbEntity
  8
MAINSEGMENT
  6
CONTINUOUS
100
AcDbLine
 10
13380.45931211227
 20
955.7485422160011
 30
0.0
 11
13380.45931211228
 21
951.7485422160067
 31
0.0
  0
ARC
  5
15A
100
AcDbEntity
  8
MAINSEGMENT
  6
CONTINUOUS
100
AcDbCircle
 10
13382.95931211224
 20
955.7485422160334
 30
0.0
 40
2.499999999999999
100
AcDbArc
 50
89.99999999998829
 51
180.0000000000172
  0
ARC
  5
15B
100
AcDbEntity
  8
MAINSEGMENT
  6
CONTINUOUS
100
AcDbCircle
 10
13373.45931211223
 20
951.7485422160046
 30
0.0
 40
7.0
100
AcDbArc
 50
269.9999999999884
 51
0.0000000000178257
  0
LWPOLYLINE
  5
15C
100
AcDbEntity
  8
MAINSEGMENT
  6
CONTINUOUS
100
AcDbPolyline
 90
        2
 70
     0
 43
0.0
 10
13358.95931211229
 20
946.2485422160074
 10
13358.95931211224
 20
944.7485422160074
  0
ARC
  5
15D
100
AcDbEntity
  8
MAINSEGMENT
  6
CONTINUOUS
100
AcDbCircle
 10
13373.45931211227
 20
951.7485422159658
 30
0.0
 40
5.5
100
AcDbArc
 50
269.9999999999883
 51
0.0000000000183853
  0
LINE
  5
15E
100
AcDbEntity
  8
MAINSEGMENT
  6
CONTINUOUS
100
AcDbLine
 10
13358.95931211292
 20
946.2485422159543
 30
0.0
 11
13373.45931211226
 21
946.2485422160041
 31
0.0
  0
LWPOLYLINE
  5
15F
100
AcDbEntity
  8
MAINSEGMENT
  6
CONTINUOUS
100
AcDbPolyline
 90
        4
 70
     1
 43
0.0
 10
13358.95931211459
 20
-1009.578235830943
 10
13424.95931211002
 20
-1009.578235830943
 10
13424.95931211002
 20
-1029.578235830944
 10
13358.95931211459
 20
-1029.578235830944
  0
LINE
  5
160
100
AcDbEntity
  8
MAINSEGMENT
  6
CONTINUOUS
100
AcDbLine
 10
15255.00622823894
 20
-1011.578235830954
 30
0.0
 11
15280.00622823896
 21
-1011.578235830954
 31
0.0
  0
LINE
  5
161
100
AcDbEntity
  8
MAINSEGMENT
  6
CONTINUOUS
100
AcDbLine
 10
15282.00622823896
 20
-1028.578235830952
 30
0.0
 11
15282.00622823896
 21
-1013.578235831
 31
0.0
  0
ARC
  5
162
100
AcDbEntity
  8
MAINSEGMENT
  6
CONTINUOUS
100
AcDbCircle
 10
15283.00622823896
 20
-1028.57823583095
 30
0.0
 40
1.000000000001216
100
AcDbArc
 50
180.0000000000827
 51
0.0
  0
ARC
  5
163
100
AcDbEntity
  8
MAINSEGMENT
  6
CONTINUOUS
100
AcDbCircle
 10
15255.00622823894
 20
-1010.57823583095
 30
0.0
 40
1.000000000003382
100
AcDbArc
 50
90.00000000000005
 51
270.0
  0
ARC
  5
164
100
AcDbEntity
  8
MAINSEGMENT
  6
CONTINUOUS
100
AcDbCircle
 10
15280.00622823896
 20
-1013.578235830999
 30
0.0
 40
1.999999999999999
100
AcDbArc
 50
0.0
 51
90.00000000000005
  0
ARC
  5
165
100
AcDbEntity
  8
MAINSEGMENT
  6
CONTINUOUS
100
AcDbCircle
 10
15282.00622823899
 20
-1011.578235830954
 30
0.0
 40
1.999999999999999
100
AcDbArc
 50
0.0000000001344484
 51
90.00000000000005
  0
LINE
  5
166
100
AcDbEntity
  8
MAINSEGMENT
  6
CONTINUOUS
100
AcDbLine
 10
15284.00622823902
 20
-1028.578235830952
 30
0.0
 11
15284.00622823894
 21
-1011.578235830944
 31
0.0
  0
ARC
  5
167
100
AcDbEntity
  8
MAINSEGMENT
  6
CONTINUOUS
100
AcDbCircle
 10
15264.00622823897
 20
-1010.453235831042
 30
0.0
 40
5.124999999982076
100
AcDbArc
 50
192.6803834909871
 51
347.3196165090092
  0
LINE
  5
168
100
AcDbEntity
  8
AXES
  6
CONTINUOUS
100
AcDbLine
 10
13391.95931211232
 20
-1059.795736060264
 30
0.0
 11
13391.9593121123
 21
-812.7308229549303
 31
0.0
  0
LINE
  5
169
100
AcDbEntity
  8
SIDEFLAP
  6
CONTINUOUS
100
AcDbLine
 10
14166.95931211231
 20
944.7485422160024
 30
0.0
 11
14166.95931211231
 21
164.7485422160025
 31
0.0
  0
LINE
  5
16A
100
AcDbEntity
  8
SIDEFLAP
  6
CONTINUOUS
100
AcDbLine
 10
13961.95931211231
 20
944.7485422160024
 30
0.0
 11
13961.95931211231
 21
164.7485422160025
 31
0.0
  0
LINE
  5
16B
100
AcDbEntity
  8
SIDEFLAP
  6
CONTINUOUS
100
AcDbLine
 10
13961.95931211231
 20
164.7485422160025
 30
0.0
 11
14166.95931211231
 21
164.7485422160025
 31
0.0
  0
LINE
  5
16C
100
AcDbEntity
  8
SIDEFLAP
  6
CONTINUOUS
100
AcDbLine
 10
14166.95931211231
 20
944.7485422160024
 30
0.0
 11
13961.95931211231
 21
944.7485422160024
 31
0.0
  0
LINE
  5
16D
100
AcDbEntity
  8
SIDEFLAP
  6
CONTINUOUS
100
AcDbLine
 10
13961.95931211231
 20
-821.3965918682367
 30
0.0
 11
13961.95931211231
 21
-41.39659186823688
 31
0.0
  0
LINE
  5
16E
100
AcDbEntity
  8
SIDEFLAP
  6
CONTINUOUS
100
AcDbLine
 10
14166.95931211231
 20
-821.3965918682367
 30
0.0
 11
14166.95931211231
 21
-41.39659186823688
 31
0.0
  0
LINE
  5
16F
100
AcDbEntity
  8
SIDEFLAP
  6
CONTINUOUS
100
AcDbLine
 10
14166.95931211231
 20
-41.39659186823688
 30
0.0
 11
13961.95931211231
 21
-41.39659186823688
 31
0.0
  0
LINE
  5
170
100
AcDbEntity
  8
SIDEFLAP
  6
CONTINUOUS
100
AcDbLine
 10
13961.95931211231
 20
-821.3965918682367
 30
0.0
 11
14166.95931211231
 21
-821.3965918682367
 31
0.0
  0
LINE
  5
171
100
AcDbEntity
  8
SIDEFLAP
  6
CONTINUOUS
100
AcDbLine
 10
13991.95931211232
 20
914.7485422160135
 30
0.0
 11
13991.95931211232
 21
194.7485422160014
 31
0.0
  0
LINE
  5
172
100
AcDbEntity
  8
SIDEFLAP
  6
CONTINUOUS
100
AcDbLine
 10
14136.95931211231
 20
914.7485422160125
 30
0.0
 11
14136.95931211231
 21
194.7485422160014
 31
0.0
  0
LINE
  5
173
100
AcDbEntity
  8
SIDEFLAP
  6
CONTINUOUS
100
AcDbLine
 10
13991.95931211232
 20
194.7485422160014
 30
0.0
 11
14136.95931211232
 21
194.7485422160022
 31
0.0
  0
LINE
  5
174
100
AcDbEntity
  8
SIDEFLAP
  6
CONTINUOUS
100
AcDbLine
 10
14136.95931211232
 20
914.7485422160125
 30
0.0
 11
13991.95931211232
 21
914.7485422160034
 31
0.0
  0
LINE
  5
175
100
AcDbEntity
  8
SIDEFLAP
  6
CONTINUOUS
100
AcDbLine
 10
13991.95931211232
 20
194.7485422160014
 30
0.0
 11
13961.95931211231
 21
164.7485422160036
 31
0.0
  0
LINE
  5
176
100
AcDbEntity
  8
SIDEFLAP
  6
CONTINUOUS
100
AcDbLine
 10
14136.95931211231
 20
194.7485422160014
 30
0.0
 11
14166.95931211227
 21
164.7485422160036
 31
0.0
  0
LINE
  5
177
100
AcDbEntity
  8
SIDEFLAP
  6
CONTINUOUS
100
AcDbLine
 10
14136.95931211231
 20
914.7485422160125
 30
0.0
 11
14166.95931211235
 21
944.7485422160063
 31
0.0
  0
LINE
  5
178
100
AcDbEntity
  8
SIDEFLAP
  6
CONTINUOUS
100
AcDbLine
 10
13991.95931211232
 20
914.7485422160135
 30
0.0
 11
13961.95931211226
 21
944.7485422160063
 31
0.0
  0
CIRCLE
  5
179
100
AcDbEntity
  8
SIDEFLAP
  6
CONTINUOUS
100
AcDbCircle
 10
14146.95931211231
 20
904.7485422160072
 30
0.0
 40
4.999999999999999
  0
CIRCLE
  5
17A
100
AcDbEntity
  8
SIDEFLAP
  6
CONTINUOUS
100
AcDbCircle
 10
14146.95931211231
 20
804.7485422160072
 30
0.0
 40
4.999999999999999
  0
CIRCLE
  5
17B
100
AcDbEntity
  8
SIDEFLAP
  6
CONTINUOUS
100
AcDbCircle
 10
14146.95931211231
 20
704.7485422160072
 30
0.0
 40
4.999999999999999
  0
CIRCLE
  5
17C
100
AcDbEntity
  8
SIDEFLAP
  6
CONTINUOUS
100
AcDbCircle
 10
14146.95931211231
 20
604.7485422160072
 30
0.0
 40
4.999999999999999
  0
CIRCLE
  5
17D
100
AcDbEntity
  8
SIDEFLAP
  6
CONTINUOUS
100
AcDbCircle
 10
14146.95931211231
 20
504.7485422160071
 30
0.0
 40
4.999999999999999
  0
CIRCLE
  5
17E
100
AcDbEntity
  8
SIDEFLAP
  6
CONTINUOUS
100
AcDbCircle
 10
14146.95931211231
 20
404.7485422160071
 30
0.0
 40
4.999999999999999
  0
CIRCLE
  5
17F
100
AcDbEntity
  8
SIDEFLAP
  6
CONTINUOUS
100
AcDbCircle
 10
14146.95931211231
 20
304.7485422160071
 30
0.0
 40
4.999999999999999
  0
CIRCLE
  5
180
100
AcDbEntity
  8
SIDEFLAP
  6
CONTINUOUS
100
AcDbCircle
 10
14146.95931211231
 20
204.7485422160071
 30
0.0
 40
4.999999999999999
  0
CIRCLE
  5
181
100
AcDbEntity
  8
SIDEFLAP
  6
CONTINUOUS
100
AcDbCircle
 10
14146.95931211231
 20
-481.3965918682415
 30
0.0
 40
3.5
  0
CIRCLE
  5
182
100
AcDbEntity
  8
SIDEFLAP
  6
CONTINUOUS
100
AcDbCircle
 10
14146.95931211231
 20
-381.3965918682415
 30
0.0
 40
3.5
  0
CIRCLE
  5
183
100
AcDbEntity
  8
SIDEFLAP
  6
CONTINUOUS
100
AcDbCircle
 10
14146.95931211231
 20
-281.3965918682415
 30
0.0
 40
3.5
  0
CIRCLE
  5
184
100
AcDbEntity
  8
SIDEFLAP
  6
CONTINUOUS
100
AcDbCircle
 10
14146.95931211231
 20
-181.3965918682415
 30
0.0
 40
3.5
  0
CIRCLE
  5
185
100
AcDbEntity
  8
SIDEFLAP
  6
CONTINUOUS
100
AcDbCircle
 10
14146.95931211231
 20
-81.3965918682415
 30
0.0
 40
3.5
  0
CIRCLE
  5
186
100
AcDbEntity
  8
SIDEFLAP
  6
CONTINUOUS
100
AcDbCircle
 10
14146.95931211231
 20
-581.3965918682414
 30
0.0
 40
3.5
  0
CIRCLE
  5
187
100
AcDbEntity
  8
SIDEFLAP
  6
CONTINUOUS
100
AcDbCircle
 10
14146.95931211231
 20
-681.3965918682414
 30
0.0
 40
3.5
  0
CIRCLE
  5
188
100
AcDbEntity
  8
SIDEFLAP
  6
CONTINUOUS
100
AcDbCircle
 10
14146.95931211231
 20
-781.3965918682414
 30
0.0
 40
3.5
  0
LINE
  5
189
100
AcDbEntity
  8
SIDEFLAP
  6
CONTINUOUS
100
AcDbLine
 10
13961.95931211231
 20
-1004.578235830944
 30
0.0
 11
14166.95931211231
 21
-1004.578235830944
 31
0.0
  0
LINE
  5
18A
100
AcDbEntity
  8
SIDEFLAP
  6
CONTINUOUS
100
AcDbLine
 10
13961.95931211231
 20
-1029.578235830945
 30
0.0
 11
14166.95931211231
 21
-1029.578235830945
 31
0.0
  0
LINE
  5
18B
100
AcDbEntity
  8
SIDEFLAP
  6
CONTINUOUS
100
AcDbLine
 10
14166.95931211231
 20
-1029.578235830945
 30
0.0
 11
14166.95931211231
 21
-1004.578235830944
 31
0.0
  0
LINE
  5
18C
100
AcDbEntity
  8
SIDEFLAP
  6
CONTINUOUS
100
AcDbLine
 10
13961.95931211231
 20
-1004.578235830944
 30
0.0
 11
13961.95931211231
 21
-1029.578235830945
 31
0.0
  0
CIRCLE
  5
18D
100
AcDbEntity
  8
SIDEFLAP
  6
CONTINUOUS
100
AcDbCircle
 10
14128.45931211232
 20
924.7485422160021
 30
0.0
 40
4.999999999999999
  0
CIRCLE
  5
18E
100
AcDbEntity
  8
SIDEFLAP
  6
CONTINUOUS
100
AcDbCircle
 10
14000.45931211232
 20
924.7485422160021
 30
0.0
 40
4.999999999999999
  0
CIRCLE
  5
18F
100
AcDbEntity
  8
SIDEFLAP
  6
CONTINUOUS
100
AcDbCircle
 10
14128.45931211232
 20
184.7485422160023
 30
0.0
 40
4.999999999999999
  0
CIRCLE
  5
190
100
AcDbEntity
  8
SIDEFLAP
  6
CONTINUOUS
100
AcDbCircle
 10
14000.45931211232
 20
184.7485422160023
 30
0.0
 40
4.999999999999999
  0
CIRCLE
  5
191
100
AcDbEntity
  8
SIDEFLAP
  6
CONTINUOUS
100
AcDbCircle
 10
14128.45931211231
 20
-61.39659186823666
 30
0.0
 40
3.5
  0
CIRCLE
  5
192
100
AcDbEntity
  8
SIDEFLAP
  6
CONTINUOUS
100
AcDbCircle
 10
14000.45931211232
 20
-61.39659186823666
 30
0.0
 40
3.5
  0
CIRCLE
  5
193
100
AcDbEntity
  8
SIDEFLAP
  6
CONTINUOUS
100
AcDbCircle
 10
14000.45931211232
 20
-801.3965918682369
 30
0.0
 40
3.5
  0
CIRCLE
  5
194
100
AcDbEntity
  8
SIDEFLAP
  6
CONTINUOUS
100
AcDbCircle
 10
14128.45931211231
 20
-801.3965918682369
 30
0.0
 40
3.5
  0
LINE
  5
195
100
AcDbEntity
  8
SIDEFLAP
  6
CONTINUOUS
100
AcDbLine
 10
14164.95931211231
 20
942.7485422159692
 30
0.0
 11
14164.95931211231
 21
166.7485422159414
 31
0.0
  0
LINE
  5
196
100
AcDbEntity
  8
SIDEFLAP
  6
CONTINUOUS
100
AcDbLine
 10
13963.95931211231
 20
942.748542215962
 30
0.0
 11
13963.95931211231
 21
166.7485422160147
 31
0.0
  0
LINE
  5
197
100
AcDbEntity
  8
SIDEFLAP
  6
CONTINUOUS
100
AcDbLine
 10
13963.95931211228
 20
166.7485422159804
 30
0.0
 11
14164.95931211226
 21
166.7485422159981
 31
0.0
  0
LINE
  5
198
100
AcDbEntity
  8
SIDEFLAP
  6
CONTINUOUS
100
AcDbLine
 10
14164.95931211235
 20
942.7485422160025
 30
0.0
 11
13963.95931211227
 21
942.7485422160073
 31
0.0
  0
LINE
  5
199
100
AcDbEntity
  8
SIDEFLAP
  6
CONTINUOUS
100
AcDbLine
 10
13961.95931211231
 20
-1009.578235830945
 30
0.0
 11
14166.95931211231
 21
-1009.578235830945
 31
0.0
  0
CIRCLE
  5
19A
100
AcDbEntity
  8
SIDEFLAP
  6
CONTINUOUS
100
AcDbCircle
 10
14021.95931211231
 20
-514.3965918682314
 30
0.0
 40
4.999999999999999
  0
LINE
  5
19B
100
AcDbEntity
  8
AXES
  6
CONTINUOUS
100
AcDbLine
 10
12633.75424772778
 20
-139.1784365115263
 30
0.0
 11
12633.75424772778
 21
211.5384657571813
 31
0.0
  0
LINE
  5
19C
100
AcDbEntity
  8
HINGES
  6
CONTINUOUS
100
AcDbLine
 10
12602.7542477278
 20
203.8483290245836
 30
0.0
 11
12664.75424772778
 21
203.8483290245953
 31
0.0
  0
LINE
  5
19D
100
AcDbEntity
  8
HINGES
  6
CONTINUOUS
100
AcDbLine
 10
12602.75424772779
 20
-86.15167097538703
 30
0.0
 11
12664.75424772777
 21
-86.1516709754513
 31
0.0
  0
LINE
  5
19E
100
AcDbEntity
  8
HINGES
  6
CONTINUOUS
100
AcDbLine
 10
12664.75424772778
 20
-86.15167097541682
 30
0.0
 11
12664.75424772779
 21
203.8483290245775
 31
0.0
  0
LINE
  5
19F
100
AcDbEntity
  8
HINGES
  6
CONTINUOUS
100
AcDbLine
 10
12602.75424772778
 20
-86.15167097541663
 30
0.0
 11
12602.75424772778
 21
203.8483290245775
 31
0.0
  0
LINE
  5
1A0
100
AcDbEntity
  8
HINGES
  6
CONTINUOUS
100
AcDbLine
 10
12639.75424772778
 20
-86.15167097544931
 30
0.0
 11
12639.75424772777
 21
203.8483290245823
 31
0.0
  0
LINE
  5
1A1
100
AcDbEntity
  8
HINGES
  6
CONTINUOUS
100
AcDbLine
 10
12627.75424772778
 20
-86.15167097544876
 30
0.0
 11
12627.75424772778
 21
203.8483290245758
 31
0.0
  0
LINE
  5
1A2
100
AcDbEntity
  8
HINGES
  6
CONTINUOUS
100
AcDbLine
 10
12664.75424772777
 20
-124.2531369639914
 30
0.0
 11
12664.75424772752
 21
-120.2531369639582
 31
0.0
  0
LINE
  5
1A3
100
AcDbEntity
  8
HINGES
  6
CONTINUOUS
100
AcDbLine
 10
12602.75424772781
 20
-120.2531369639991
 30
0.0
 11
12602.75424772779
 21
-124.2531369639271
 31
0.0
  0
LINE
  5
1A4
100
AcDbEntity
  8
HINGES
  6
CONTINUOUS
100
AcDbLine
 10
12602.75424772779
 20
-124.2531369639271
 30
0.0
 11
12633.75424772777
 21
-124.2531369639592
 31
0.0
  0
LINE
  5
1A5
100
AcDbEntity
  8
HINGES
  6
CONTINUOUS
100
AcDbLine
 10
12640.23498842597
 20
-124.2531369639578
 30
0.0
 11
12664.75424772777
 21
-124.2531369639914
 31
0.0
  0
LINE
  5
1A6
100
AcDbEntity
  8
HINGES
  6
CONTINUOUS
100
AcDbLine
 10
12602.75424772779
 20
-122.253136963927
 30
0.0
 11
12633.75424772777
 21
-122.2531369639591
 31
0.0
  0
LINE
  5
1A7
100
AcDbEntity
  8
HINGES
  6
CONTINUOUS
100
AcDbLine
 10
12640.23498842597
 20
-122.2531369640422
 30
0.0
 11
12664.75424772777
 21
-122.2531369639913
 31
0.0
  0
LINE
  5
1A8
100
AcDbEntity
  8
HINGES
  6
CONTINUOUS
100
AcDbLine
 10
12602.75424772779
 20
-120.2531369639271
 30
0.0
 11
12628.09739347829
 21
-120.2531369639536
 31
0.0
  0
LINE
  5
1A9
100
AcDbEntity
  8
HINGES
  6
CONTINUOUS
100
AcDbLine
 10
12640.23498842619
 20
-120.2531369640482
 30
0.0
 11
12664.75424772777
 21
-120.2531369639914
 31
0.0
  0
LINE
  5
1AA
100
AcDbEntity
  8
HINGES
  6
CONTINUOUS
100
AcDbLine
 10
12640.23498842596
 20
-120.253136964015
 30
0.0
 11
12640.23498842619
 21
-124.2531369639576
 31
0.0
  0
ARC
  5
1AB
100
AcDbEntity
  8
HINGES
  6
CONTINUOUS
100
AcDbCircle
 10
12633.75424772778
 20
-118.2531369639592
 30
0.0
 40
6.0
100
AcDbArc
 50
270.0
 51
221.8103148957201
  0
ARC
  5
1AC
100
AcDbEntity
  8
HINGES
  6
CONTINUOUS
100
AcDbCircle
 10
12633.75424772778
 20
-118.2531369639592
 30
0.0
 40
3.999999999999999
100
AcDbArc
 50
270.0
 51
221.810314895724
  0
LINE
  5
1AD
100
AcDbEntity
  8
HINGES
  6
CONTINUOUS
100
AcDbLine
 10
12629.28211177278
 20
-122.2531369639547
 30
0.0
 11
12630.77282375778
 21
-120.9198036306229
 31
0.0
  0
LINE
  5
1AE
100
AcDbEntity
  8
HINGES
  6
CONTINUOUS
100
AcDbLine
 10
12628.09739347829
 20
-120.2531369639536
 30
0.0
 11
12628.09739347829
 21
-122.2531369639577
 31
0.0
  0
CIRCLE
  5
1AF
100
AcDbEntity
  8
HINGES
  6
CONTINUOUS
100
AcDbCircle
 10
12633.75424772778
 20
-118.2531369639592
 30
0.0
 40
3.999999999999999
  0
LINE
  5
1B0
100
AcDbEntity
  8
HINGES
  6
CONTINUOUS
100
AcDbLine
 10
12627.75424772778
 20
-70.65167097544868
 30
0.0
 11
12639.75424772778
 21
-70.65167097544868
 31
0.0
  0
LINE
  5
1B1
100
AcDbEntity
  8
HINGES
  6
CONTINUOUS
100
AcDbLine
 10
12627.75424772778
 20
-71.65167097544864
 30
0.0
 11
12639.75424772778
 21
-71.65167097544864
 31
0.0
  0
LINE
  5
1B2
100
AcDbEntity
  8
HINGES
  6
CONTINUOUS
100
AcDbLine
 10
12627.75424772778
 20
-10.6516709754486
 30
0.0
 11
12639.75424772778
 21
-10.6516709754486
 31
0.0
  0
LINE
  5
1B3
100
AcDbEntity
  8
HINGES
  6
CONTINUOUS
100
AcDbLine
 10
12627.75424772778
 20
-11.65167097544856
 30
0.0
 11
12639.75424772778
 21
-11.65167097544856
 31
0.0
  0
LINE
  5
1B4
100
AcDbEntity
  8
HINGES
  6
CONTINUOUS
100
AcDbLine
 10
12627.75424772778
 20
109.3483290245515
 30
0.0
 11
12639.75424772778
 21
109.3483290245515
 31
0.0
  0
LINE
  5
1B5
100
AcDbEntity
  8
HINGES
  6
CONTINUOUS
100
AcDbLine
 10
12627.75424772778
 20
108.3483290245515
 30
0.0
 11
12639.75424772778
 21
108.3483290245515
 31
0.0
  0
LINE
  5
1B6
100
AcDbEntity
  8
HINGES
  6
CONTINUOUS
100
AcDbLine
 10
12627.75424772778
 20
169.3483290245516
 30
0.0
 11
12639.75424772778
 21
169.3483290245516
 31
0.0
  0
LINE
  5
1B7
100
AcDbEntity
  8
HINGES
  6
CONTINUOUS
100
AcDbLine
 10
12627.75424772778
 20
168.3483290245516
 30
0.0
 11
12639.75424772778
 21
168.3483290245516
 31
0.0
  0
LINE
  5
1B8
100
AcDbEntity
  8
HINGES
  6
CONTINUOUS
100
AcDbLine
 10
13930.95931211232
 20
-209.3965918682443
 30
0.0
 11
13992.95931211231
 21
-209.3965918682326
 31
0.0
  0
LINE
  5
1B9
100
AcDbEntity
  8
HINGES
  6
CONTINUOUS
100
AcDbLine
 10
13930.95931211232
 20
-499.396591868215
 30
0.0
 11
13992.9593121123
 21
-499.3965918682792
 31
0.0
  0
LINE
  5
1BA
100
AcDbEntity
  8
HINGES
  6
CONTINUOUS
100
AcDbLine
 10
13992.9593121123
 20
-499.3965918682447
 30
0.0
 11
13992.95931211231
 21
-209.3965918682504
 31
0.0
  0
LINE
  5
1BB
100
AcDbEntity
  8
HINGES
  6
CONTINUOUS
100
AcDbLine
 10
13930.95931211231
 20
-499.3965918682446
 30
0.0
 11
13930.95931211231
 21
-209.3965918682504
 31
0.0
  0
LINE
  5
1BC
100
AcDbEntity
  8
HINGES
  6
CONTINUOUS
100
AcDbLine
 10
13967.9593121123
 20
-499.3965918682772
 30
0.0
 11
13967.9593121123
 21
-209.3965918682456
 31
0.0
  0
LINE
  5
1BD
100
AcDbEntity
  8
HINGES
  6
CONTINUOUS
100
AcDbLine
 10
13955.9593121123
 20
-499.3965918682767
 30
0.0
 11
13955.95931211231
 21
-209.3965918682521
 31
0.0
  0
LINE
  5
1BE
100
AcDbEntity
  8
HINGES
  6
CONTINUOUS
100
AcDbLine
 10
13955.9593121123
 20
-483.8965918682766
 30
0.0
 11
13967.9593121123
 21
-483.8965918682766
 31
0.0
  0
LINE
  5
1BF
100
AcDbEntity
  8
HINGES
  6
CONTINUOUS
100
AcDbLine
 10
13955.9593121123
 20
-484.8965918682766
 30
0.0
 11
13967.9593121123
 21
-484.8965918682766
 31
0.0
  0
LINE
  5
1C0
100
AcDbEntity
  8
HINGES
  6
CONTINUOUS
100
AcDbLine
 10
13955.9593121123
 20
-423.8965918682765
 30
0.0
 11
13967.9593121123
 21
-423.8965918682765
 31
0.0
  0
LINE
  5
1C1
100
AcDbEntity
  8
HINGES
  6
CONTINUOUS
100
AcDbLine
 10
13955.9593121123
 20
-424.8965918682765
 30
0.0
 11
13967.9593121123
 21
-424.8965918682765
 31
0.0
  0
LINE
  5
1C2
100
AcDbEntity
  8
HINGES
  6
CONTINUOUS
100
AcDbLine
 10
13955.9593121123
 20
-363.8965918682765
 30
0.0
 11
13967.9593121123
 21
-363.8965918682765
 31
0.0
  0
LINE
  5
1C3
100
AcDbEntity
  8
HINGES
  6
CONTINUOUS
100
AcDbLine
 10
13955.9593121123
 20
-364.8965918682764
 30
0.0
 11
13967.9593121123
 21
-364.8965918682764
 31
0.0
  0
LINE
  5
1C4
100
AcDbEntity
  8
HINGES
  6
CONTINUOUS
100
AcDbLine
 10
13955.9593121123
 20
-303.8965918682764
 30
0.0
 11
13967.9593121123
 21
-303.8965918682764
 31
0.0
  0
LINE
  5
1C5
100
AcDbEntity
  8
HINGES
  6
CONTINUOUS
100
AcDbLine
 10
13955.9593121123
 20
-304.8965918682764
 30
0.0
 11
13967.9593121123
 21
-304.8965918682764
 31
0.0
  0
LINE
  5
1C6
100
AcDbEntity
  8
HINGES
  6
CONTINUOUS
100
AcDbLine
 10
13955.9593121123
 20
-243.8965918682763
 30
0.0
 11
13967.9593121123
 21
-243.8965918682763
 31
0.0
  0
LINE
  5
1C7
100
AcDbEntity
  8
HINGES
  6
CONTINUOUS
100
AcDbLine
 10
13955.9593121123
 20
-244.8965918682763
 30
0.0
 11
13967.9593121123
 21
-244.8965918682763
 31
0.0
  0
LINE
  5
1C8
100
AcDbEntity
  8
HINGES
  6
CONTINUOUS
100
AcDbLine
 10
13930.95931211232
 20
-529.3965918682443
 30
0.0
 11
13992.95931211231
 21
-529.3965918682325
 31
0.0
  0
LINE
  5
1C9
100
AcDbEntity
  8
HINGES
  6
CONTINUOUS
100
AcDbLine
 10
13930.95931211232
 20
-819.3965918682149
 30
0.0
 11
13992.9593121123
 21
-819.3965918682792
 31
0.0
  0
LINE
  5
1CA
100
AcDbEntity
  8
HINGES
  6
CONTINUOUS
100
AcDbLine
 10
13992.9593121123
 20
-819.3965918682447
 30
0.0
 11
13992.95931211231
 21
-529.3965918682504
 31
0.0
  0
LINE
  5
1CB
100
AcDbEntity
  8
HINGES
  6
CONTINUOUS
100
AcDbLine
 10
13930.95931211231
 20
-819.3965918682446
 30
0.0
 11
13930.95931211231
 21
-529.3965918682504
 31
0.0
  0
LINE
  5
1CC
100
AcDbEntity
  8
HINGES
  6
CONTINUOUS
100
AcDbLine
 10
13967.9593121123
 20
-819.3965918682772
 30
0.0
 11
13967.9593121123
 21
-529.3965918682455
 31
0.0
  0
LINE
  5
1CD
100
AcDbEntity
  8
HINGES
  6
CONTINUOUS
100
AcDbLine
 10
13955.9593121123
 20
-819.3965918682767
 30
0.0
 11
13955.95931211231
 21
-529.396591868252
 31
0.0
  0
LINE
  5
1CE
100
AcDbEntity
  8
HINGES
  6
CONTINUOUS
100
AcDbLine
 10
13955.9593121123
 20
-803.8965918682766
 30
0.0
 11
13967.9593121123
 21
-803.8965918682766
 31
0.0
  0
LINE
  5
1CF
100
AcDbEntity
  8
HINGES
  6
CONTINUOUS
100
AcDbLine
 10
13955.9593121123
 20
-804.8965918682766
 30
0.0
 11
13967.9593121123
 21
-804.8965918682766
 31
0.0
  0
LINE
  5
1D0
100
AcDbEntity
  8
HINGES
  6
CONTINUOUS
100
AcDbLine
 10
13955.9593121123
 20
-743.8965918682765
 30
0.0
 11
13967.9593121123
 21
-743.8965918682765
 31
0.0
  0
LINE
  5
1D1
100
AcDbEntity
  8
HINGES
  6
CONTINUOUS
100
AcDbLine
 10
13955.9593121123
 20
-744.8965918682764
 30
0.0
 11
13967.9593121123
 21
-744.8965918682764
 31
0.0
  0
LINE
  5
1D2
100
AcDbEntity
  8
HINGES
  6
CONTINUOUS
100
AcDbLine
 10
13955.9593121123
 20
-683.8965918682764
 30
0.0
 11
13967.9593121123
 21
-683.8965918682764
 31
0.0
  0
LINE
  5
1D3
100
AcDbEntity
  8
HINGES
  6
CONTINUOUS
100
AcDbLine
 10
13955.9593121123
 20
-684.8965918682765
 30
0.0
 11
13967.9593121123
 21
-684.8965918682765
 31
0.0
  0
LINE
  5
1D4
100
AcDbEntity
  8
HINGES
  6
CONTINUOUS
100
AcDbLine
 10
13955.9593121123
 20
-623.8965918682763
 30
0.0
 11
13967.9593121123
 21
-623.8965918682763
 31
0.0
  0
LINE
  5
1D5
100
AcDbEntity
  8
HINGES
  6
CONTINUOUS
100
AcDbLine
 10
13955.9593121123
 20
-624.8965918682763
 30
0.0
 11
13967.9593121123
 21
-624.8965918682763
 31
0.0
  0
LINE
  5
1D6
100
AcDbEntity
  8
HINGES
  6
CONTINUOUS
100
AcDbLine
 10
13955.9593121123
 20
-563.8965918682763
 30
0.0
 11
13967.9593121123
 21
-563.8965918682763
 31
0.0
  0
LINE
  5
1D7
100
AcDbEntity
  8
HINGES
  6
CONTINUOUS
100
AcDbLine
 10
13955.9593121123
 20
-564.8965918682762
 30
0.0
 11
13967.9593121123
 21
-564.8965918682762
 31
0.0
  0
LINE
  5
1D8
100
AcDbEntity
  8
HINGES
  6
CONTINUOUS
100
AcDbLine
 10
13992.95931211231
 20
-1004.578235830942
 30
0.0
 11
13992.95931211206
 21
-1000.578235830908
 31
0.0
  0
LINE
  5
1D9
100
AcDbEntity
  8
HINGES
  6
CONTINUOUS
100
AcDbLine
 10
13930.95931211235
 20
-1000.578235830949
 30
0.0
 11
13930.95931211233
 21
-1004.578235830877
 31
0.0
  0
LINE
  5
1DA
100
AcDbEntity
  8
HINGES
  6
CONTINUOUS
100
AcDbLine
 10
13930.95931211233
 20
-1004.578235830877
 30
0.0
 11
13961.95931211231
 21
-1004.578235830909
 31
0.0
  0
LINE
  5
1DB
100
AcDbEntity
  8
HINGES
  6
CONTINUOUS
100
AcDbLine
 10
13968.4400528105
 20
-1004.578235830908
 30
0.0
 11
13992.95931211231
 21
-1004.578235830942
 31
0.0
  0
LINE
  5
1DC
100
AcDbEntity
  8
HINGES
  6
CONTINUOUS
100
AcDbLine
 10
13930.95931211233
 20
-1002.578235830877
 30
0.0
 11
13961.95931211231
 21
-1002.578235830909
 31
0.0
  0
LINE
  5
1DD
100
AcDbEntity
  8
HINGES
  6
CONTINUOUS
100
AcDbLine
 10
13968.4400528105
 20
-1002.578235830992
 30
0.0
 11
13992.95931211231
 21
-1002.578235830941
 31
0.0
  0
LINE
  5
1DE
100
AcDbEntity
  8
HINGES
  6
CONTINUOUS
100
AcDbLine
 10
13930.95931211233
 20
-1000.578235830877
 30
0.0
 11
13956.30245786282
 21
-1000.578235830904
 31
0.0
  0
LINE
  5
1DF
100
AcDbEntity
  8
HINGES
  6
CONTINUOUS
100
AcDbLine
 10
13968.44005281073
 20
-1000.578235830998
 30
0.0
 11
13992.95931211231
 21
-1000.578235830942
 31
0.0
  0
LINE
  5
1E0
100
AcDbEntity
  8
HINGES
  6
CONTINUOUS
100
AcDbLine
 10
13968.4400528105
 20
-1000.578235830965
 30
0.0
 11
13968.44005281073
 21
-1004.578235830908
 31
0.0
  0
ARC
  5
1E1
100
AcDbEntity
  8
HINGES
  6
CONTINUOUS
100
AcDbCircle
 10
13961.95931211231
 20
-998.5782358309098
 30
0.0
 40
6.0
100
AcDbArc
 50
270.0
 51
221.8103148957201
  0
ARC
  5
1E2
100
AcDbEntity
  8
HINGES
  6
CONTINUOUS
100
AcDbCircle
 10
13961.95931211231
 20
-998.5782358309098
 30
0.0
 40
3.999999999999999
100
AcDbArc
 50
270.0
 51
221.810314895724
  0
LINE
  5
1E3
100
AcDbEntity
  8
HINGES
  6
CONTINUOUS
100
AcDbLine
 10
13957.48717615731
 20
-1002.578235830905
 30
0.0
 11
13958.97788814231
 21
-1001.244902497573
 31
0.0
  0
LINE
  5
1E4
100
AcDbEntity
  8
HINGES
  6
CONTINUOUS
100
AcDbLine
 10
13956.30245786282
 20
-1000.578235830904
 30
0.0
 11
13956.30245786282
 21
-1002.578235830908
 31
0.0
  0
CIRCLE
  5
1E5
100
AcDbEntity
  8
HINGES
  6
CONTINUOUS
100
AcDbCircle
 10
13961.95931211231
 20
-998.5782358309098
 30
0.0
 40
3.999999999999999
  0
LINE
  5
1E6
100
AcDbEntity
  8
HINGES
  6
CONTINUOUS
100
AcDbLine
 10
12898.14940800145
 20
-1000.578235830945
 30
0.0
 11
13188.14940800145
 21
-1000.578235830945
 31
0.0
  0
LINE
  5
1E7
100
AcDbEntity
  8
HINGES
  6
CONTINUOUS
100
AcDbLine
 10
12578.14940800145
 20
-1000.578235830945
 30
0.0
 11
12868.14940800145
 21
-1000.578235830945
 31
0.0
  0
LINE
  5
1E8
100
AcDbEntity
  8
HINGES
  6
CONTINUOUS
100
AcDbLine
 10
13188.14940800175
 20
-992.5782358309085
 30
0.0
 11
13188.14940800145
 21
-1004.578235830945
 31
0.0
  0
LINE
  5
1E9
100
AcDbEntity
  8
HINGES
  6
CONTINUOUS
100
AcDbLine
 10
12898.1494080013
 20
-992.578235830908
 30
0.0
 11
12898.14940800145
 21
-1004.578235830945
 31
0.0
  0
LINE
  5
1EA
100
AcDbEntity
  8
HINGES
  6
CONTINUOUS
100
AcDbLine
 10
12868.14940800152
 20
-992.578235830908
 30
0.0
 11
12868.14940800145
 21
-1004.578235830945
 31
0.0
  0
LINE
  5
1EB
100
AcDbEntity
  8
HINGES
  6
CONTINUOUS
100
AcDbLine
 10
12578.14940800108
 20
-992.5782358309085
 30
0.0
 11
12578.14940800145
 21
-1004.578235830945
 31
0.0
  0
LINE
  5
1EC
100
AcDbEntity
  8
MAINSEGMENT
  6
CONTINUOUS
100
AcDbLine
 10
13356.95931211231
 20
-1171.105257829959
 30
0.0
 11
13961.95931211231
 21
-1171.105257829959
 31
0.0
  0
LINE
  5
1ED
100
AcDbEntity
  8
MAINSEGMENT
  6
CONTINUOUS
100
AcDbLine
 10
13356.95931211231
 20
-1171.105257829959
 30
0.0
 11
13356.95931211234
 21
-1176.105257829959
 31
0.0
  0
LINE
  5
1EE
100
AcDbEntity
  8
MAINSEGMENT
  6
CONTINUOUS
100
AcDbLine
 10
13356.95931211231
 20
-1176.105257829959
 30
0.0
 11
13961.95931211231
 21
-1176.105257829959
 31
0.0
  0
LINE
  5
1EF
100
AcDbEntity
  8
MAINSEGMENT
  6
CONTINUOUS
100
AcDbLine
 10
13945.45931211231
 20
-1171.105257829961
 30
0.0
 11
13954.45931211231
 21
-1171.105257829959
 31
0.0
  0
LINE
  5
1F0
100
AcDbEntity
  8
MAINSEGMENT
  6
CONTINUOUS
100
AcDbLine
 10
13919.45931211231
 20
-1171.105257829961
 30
0.0
 11
13928.45931211232
 21
-1171.105257829959
 31
0.0
  0
LINE
  5
1F1
100
AcDbEntity
  8
SIDEFLAP
  6
CONTINUOUS
100
AcDbLine
 10
13961.95931211231
 20
-1171.105257829959
 30
0.0
 11
14166.95931211231
 21
-1171.105257829959
 31
0.0
  0
LINE
  5
1F2
100
AcDbEntity
  8
SIDEFLAP
  6
CONTINUOUS
100
AcDbLine
 10
13961.95931211231
 20
-1176.105257829959
 30
0.0
 11
14166.95931211231
 21
-1176.105257829959
 31
0.0
  0
LINE
  5
1F3
100
AcDbEntity
  8
HINGES
  6
CONTINUOUS
100
AcDbLine
 10
13992.95931211231
 20
-1171.105257829957
 30
0.0
 11
13992.95931211206
 21
-1167.105257829923
 31
0.0
  0
LINE
  5
1F4
100
AcDbEntity
  8
HINGES
  6
CONTINUOUS
100
AcDbLine
 10
13930.95931211235
 20
-1167.105257829964
 30
0.0
 11
13930.95931211233
 21
-1171.105257829892
 31
0.0
  0
LINE
  5
1F5
100
AcDbEntity
  8
HINGES
  6
CONTINUOUS
100
AcDbLine
 10
13930.95931211233
 20
-1171.105257829892
 30
0.0
 11
13961.95931211231
 21
-1171.105257829924
 31
0.0
  0
LINE
  5
1F6
100
AcDbEntity
  8
HINGES
  6
CONTINUOUS
100
AcDbLine
 10
13968.4400528105
 20
-1171.105257829923
 30
0.0
 11
13992.95931211231
 21
-1171.105257829957
 31
0.0
  0
LINE
  5
1F7
100
AcDbEntity
  8
HINGES
  6
CONTINUOUS
100
AcDbLine
 10
13930.95931211233
 20
-1169.105257829892
 30
0.0
 11
13961.95931211231
 21
-1169.105257829924
 31
0.0
  0
LINE
  5
1F8
100
AcDbEntity
  8
HINGES
  6
CONTINUOUS
100
AcDbLine
 10
13968.4400528105
 20
-1169.105257830007
 30
0.0
 11
13992.95931211231
 21
-1169.105257829957
 31
0.0
  0
LINE
  5
1F9
100
AcDbEntity
  8
HINGES
  6
CONTINUOUS
100
AcDbLine
 10
13930.95931211233
 20
-1167.105257829892
 30
0.0
 11
13956.30245786282
 21
-1167.105257829919
 31
0.0
  0
LINE
  5
1FA
100
AcDbEntity
  8
HINGES
  6
CONTINUOUS
100
AcDbLine
 10
13968.44005281073
 20
-1167.105257830013
 30
0.0
 11
13992.95931211231
 21
-1167.105257829956
 31
0.0
  0
LINE
  5
1FB
100
AcDbEntity
  8
HINGES
  6
CONTINUOUS
100
AcDbLine
 10
13968.4400528105
 20
-1167.10525782998
 30
0.0
 11
13968.44005281073
 21
-1171.105257829923
 31
0.0
  0
ARC
  5
1FC
100
AcDbEntity
  8
HINGES
  6
CONTINUOUS
100
AcDbCircle
 10
13961.95931211231
 20
-1165.105257829924
 30
0.0
 40
6.0
100
AcDbArc
 50
270.0
 51
221.8103148957201
  0
ARC
  5
1FD
100
AcDbEntity
  8
HINGES
  6
CONTINUOUS
100
AcDbCircle
 10
13961.95931211231
 20
-1165.105257829924
 30
0.0
 40
3.999999999999999
100
AcDbArc
 50
270.0
 51
221.810314895724
  0
LINE
  5
1FE
100
AcDbEntity
  8
HINGES
  6
CONTINUOUS
100
AcDbLine
 10
13957.48717615731
 20
-1169.10525782992
 30
0.0
 11
13958.97788814231
 21
-1167.771924496588
 31
0.0
  0
LINE
  5
1FF
100
AcDbEntity
  8
HINGES
  6
CONTINUOUS
100
AcDbLine
 10
13956.30245786282
 20
-1167.105257829919
 30
0.0
 11
13956.30245786282
 21
-1169.105257829923
 31
0.0
  0
CIRCLE
  5
200
100
AcDbEntity
  8
HINGES
  6
CONTINUOUS
100
AcDbCircle
 10
13961.95931211231
 20
-1165.105257829924
 30
0.0
 40
3.999999999999999
  0
LINE
  5
201
100
AcDbEntity
  8
SIDEFLAP
  6
CONTINUOUS
100
AcDbLine
 10
13990.95931211248
 20
-1178.105257829965
 30
0.0
 11
13965.95931211247
 21
-1178.105257829965
 31
0.0
  0
LINE
  5
202
100
AcDbEntity
  8
SIDEFLAP
  6
CONTINUOUS
100
AcDbLine
 10
13963.95931211246
 20
-1195.105257829963
 30
0.0
 11
13963.95931211246
 21
-1180.105257830011
 31
0.0
  0
ARC
  5
203
100
AcDbEntity
  8
SIDEFLAP
  6
CONTINUOUS
100
AcDbCircle
 10
13962.95931211246
 20
-1195.105257829962
 30
0.0
 40
1.000000000001216
100
AcDbArc
 50
180.0
 51
359.9999999999172
  0
ARC
  5
204
100
AcDbEntity
  8
SIDEFLAP
  6
CONTINUOUS
100
AcDbCircle
 10
13990.95931211248
 20
-1177.105257829962
 30
0.0
 40
1.000000000003382
100
AcDbArc
 50
269.9999999999999
 51
89.99999999999992
  0
ARC
  5
205
100
AcDbEntity
  8
SIDEFLAP
  6
CONTINUOUS
100
AcDbCircle
 10
13965.95931211247
 20
-1180.105257830011
 30
0.0
 40
1.999999999999999
100
AcDbArc
 50
89.99999999999994
 51
180.0
  0
ARC
  5
206
100
AcDbEntity
  8
SIDEFLAP
  6
CONTINUOUS
100
AcDbCircle
 10
13963.95931211243
 20
-1178.105257829965
 30
0.0
 40
1.999999999999999
100
AcDbArc
 50
89.99999999999994
 51
179.9999999998655
  0
LINE
  5
207
100
AcDbEntity
  8
SIDEFLAP
  6
CONTINUOUS
100
AcDbLine
 10
13961.9593121124
 20
-1195.105257829963
 30
0.0
 11
13961.95931211248
 21
-1178.105257829956
 31
0.0
  0
LINE
  5
208
100
AcDbEntity
  8
MAINSEGMENT
  6
CONTINUOUS
100
AcDbLine
 10
13932.95931211231
 20
-1178.105257829965
 30
0.0
 11
13957.95931211233
 21
-1178.105257829965
 31
0.0
  0
LINE
  5
209
100
AcDbEntity
  8
MAINSEGMENT
  6
CONTINUOUS
100
AcDbLine
 10
13959.95931211233
 20
-1195.105257829963
 30
0.0
 11
13959.95931211233
 21
-1180.105257830011
 31
0.0
  0
ARC
  5
20A
100
AcDbEntity
  8
MAINSEGMENT
  6
CONTINUOUS
100
AcDbCircle
 10
13960.95931211233
 20
-1195.105257829962
 30
0.0
 40
1.000000000001216
100
AcDbArc
 50
180.0000000000827
 51
0.0
  0
ARC
  5
20B
100
AcDbEntity
  8
MAINSEGMENT
  6
CONTINUOUS
100
AcDbCircle
 10
13932.95931211231
 20
-1177.105257829962
 30
0.0
 40
1.000000000003382
100
AcDbArc
 50
90.00000000000005
 51
270.0
  0
ARC
  5
20C
100
AcDbEntity
  8
MAINSEGMENT
  6
CONTINUOUS
100
AcDbCircle
 10
13957.95931211233
 20
-1180.105257830011
 30
0.0
 40
1.999999999999999
100
AcDbArc
 50
0.0
 51
90.00000000000005
  0
ARC
  5
20D
100
AcDbEntity
  8
MAINSEGMENT
  6
CONTINUOUS
100
AcDbCircle
 10
13959.95931211236
 20
-1178.105257829965
 30
0.0
 40
1.999999999999999
100
AcDbArc
 50
0.0000000001344484
 51
90.00000000000005
  0
LINE
  5
20E
100
AcDbEntity
  8
MAINSEGMENT
  6
CONTINUOUS
100
AcDbLine
 10
13961.9593121124
 20
-1195.105257829963
 30
0.0
 11
13961.95931211231
 21
-1178.105257829956
 31
0.0
  0
LINE
  5
20F
100
AcDbEntity
  8
SIDEFLAP
  6
CONTINUOUS
100
AcDbLine
 10
14166.95931211231
 20
-1171.105257829959
 30
0.0
 11
14166.95931211231
 21
-1176.105257829959
 31
0.0
  0
LINE
  5
210
100
AcDbEntity
  8
SIDEFLAP
  6
CONTINUOUS
100
AcDbLine
 10
14137.95931211223
 20
-1178.105257829973
 30
0.0
 11
14162.95931211224
 21
-1178.105257829973
 31
0.0
  0
LINE
  5
211
100
AcDbEntity
  8
SIDEFLAP
  6
CONTINUOUS
100
AcDbLine
 10
14164.95931211225
 20
-1195.105257829972
 30
0.0
 11
14164.95931211225
 21
-1180.10525783002
 31
0.0
  0
ARC
  5
212
100
AcDbEntity
  8
SIDEFLAP
  6
CONTINUOUS
100
AcDbCircle
 10
14165.95931211225
 20
-1195.10525782997
 30
0.0
 40
1.000000000001216
100
AcDbArc
 50
180.0000000000827
 51
0.0
  0
ARC
  5
213
100
AcDbEntity
  8
SIDEFLAP
  6
CONTINUOUS
100
AcDbCircle
 10
14137.95931211223
 20
-1177.10525782997
 30
0.0
 40
1.000000000003382
100
AcDbArc
 50
90.00000000000005
 51
270.0
  0
ARC
  5
214
100
AcDbEntity
  8
SIDEFLAP
  6
CONTINUOUS
100
AcDbCircle
 10
14162.95931211224
 20
-1180.105257830019
 30
0.0
 40
1.999999999999999
100
AcDbArc
 50
0.0
 51
90.00000000000005
  0
ARC
  5
215
100
AcDbEntity
  8
SIDEFLAP
  6
CONTINUOUS
100
AcDbCircle
 10
14164.95931211228
 20
-1178.105257829973
 30
0.0
 40
1.999999999999999
100
AcDbArc
 50
0.0000000001344484
 51
90.00000000000005
  0
LINE
  5
216
100
AcDbEntity
  8
SIDEFLAP
  6
CONTINUOUS
100
AcDbLine
 10
14166.95931211231
 20
-1195.105257829972
 30
0.0
 11
14166.95931211223
 21
-1178.105257829964
 31
0.0
  0
ARC
  5
217
100
AcDbEntity
  8
SIDEFLAP
  6
CONTINUOUS
100
AcDbCircle
 10
14146.95931211226
 20
-1176.980257830062
 30
0.0
 40
5.124999999982076
100
AcDbArc
 50
192.6803834909871
 51
347.3196165090092
  0
LINE
  5
218
100
AcDbEntity
  8
NUTS
  6
CONTINUOUS
100
AcDbLine
 10
12986.42775520236
 20
-15.79840734441487
 30
0.0
 11
12986.42775520227
 21
0.3674001928302395
 31
0.0
  0
LINE
  5
219
100
AcDbEntity
  8
NUTS
  6
CONTINUOUS
100
AcDbLine
 10
12981.42775520226
 20
-15.79840734441492
 30
0.0
 11
12981.42775520247
 21
0.3674001928313675
 31
0.0
  0
LINE
  5
21A
100
AcDbEntity
  8
NUTS
  6
CONTINUOUS
100
AcDbLine
 10
12961.81627025413
 20
-24.08353365784908
 30
0.0
 11
12975.81627025387
 21
-24.08353365768091
 31
0.0
  0
LINE
  5
21B
100
AcDbEntity
  8
NUTS
  6
CONTINUOUS
100
AcDbLine
 10
12961.81627025398
 20
-19.08353365772739
 30
0.0
 11
12975.8162702539
 21
-19.08353365763788
 31
0.0
  0
CIRCLE
  5
21C
100
AcDbEntity
  8
NUTS
  6
CONTINUOUS
100
AcDbCircle
 10
12968.81627025398
 20
-7.71550357575929
 30
0.0
 40
3.999999999999999
  0
LINE
  5
21D
100
AcDbEntity
  8
NUTS
  6
CONTINUOUS
100
AcDbLine
 10
12961.81627025403
 20
-19.08353365770398
 30
0.0
 11
12961.81627025418
 21
-24.08353365776132
 31
0.0
  0
LINE
  5
21E
100
AcDbEntity
  8
NUTS
  6
CONTINUOUS
100
AcDbLine
 10
12968.81627025394
 20
-19.08353365766536
 30
0.0
 11
12968.81627025398
 21
-24.08353365773208
 31
0.0
  0
LINE
  5
21F
100
AcDbEntity
  8
NUTS
  6
CONTINUOUS
100
AcDbLine
 10
12975.81627025398
 20
-19.08353365762637
 30
0.0
 11
12975.81627025395
 21
-24.08353365770284
 31
0.0
  0
TEXT
  5
220
100
AcDbEntity
  8
COMMENTS
  6
CONTINUOUS
100
AcDbText
 10
12941.39426812789
 20
9.332187293719202
 30
0.0
 40
7.688032662602642
  1
Nuts for hinges
 41
0.6000000000000001
  7
ARIAL
 11
12941.39426812789
 21
9.332187293719202
 31
0.0
100
AcDbText
 73
     1
  0
LINE
  5
221
100
AcDbEntity
  8
HINGES
  6
CONTINUOUS
100
AcDbLine
 10
13188.14940800177
 20
-992.5782358309085
 30
0.0
 11
12898.14940800142
 21
-992.5782358309104
 31
0.0
  0
LINE
  5
222
100
AcDbEntity
  8
HINGES
  6
CONTINUOUS
100
AcDbLine
 10
12868.14940800145
 20
-992.5782358309092
 30
0.0
 11
12578.14940800108
 21
-992.5782358309097
 31
0.0
  0
LINE
  5
223
100
AcDbEntity
  8
HINGES
  6
CONTINUOUS
100
AcDbLine
 10
12627.75424772778
 20
59.3483290245516
 30
0.0
 11
12639.75424772778
 21
59.3483290245516
 31
0.0
  0
LINE
  5
224
100
AcDbEntity
  8
HINGES
  6
CONTINUOUS
100
AcDbLine
 10
12627.75424772778
 20
58.34832902455165
 30
0.0
 11
12639.75424772778
 21
58.34832902455165
 31
0.0
  0
LINE
  5
225
100
AcDbEntity
  8
HINGES
  6
CONTINUOUS
100
AcDbLine
 10
12627.75424772778
 20
-50.6516709754484
 30
0.0
 11
12639.75424772778
 21
-50.6516709754484
 31
0.0
  0
LINE
  5
226
100
AcDbEntity
  8
HINGES
  6
CONTINUOUS
100
AcDbLine
 10
12627.75424772778
 20
-51.65167097544835
 30
0.0
 11
12639.75424772778
 21
-51.65167097544835
 31
0.0
  0
LWPOLYLINE
  5
227
100
AcDbEntity
  8
NUTS
  6
CONTINUOUS
100
AcDbPolyline
 90
        6
 70
     1
 43
0.0
 10
12975.81627025398
 20
-3.674051691431994
 10
12968.81627025398
 20
0.3674001928953018
 10
12961.81627025398
 20
-3.674051691431994
 10
12961.81627025398
 20
-11.75695546008658
 10
12968.81627025398
 20
-15.79840734441388
 10
12975.81627025398
 20
-11.75695546008658
  0
LINE
  5
228
100
AcDbEntity
  8
NUTS
  6
CONTINUOUS
100
AcDbLine
 10
12981.42775520227
 20
-15.79840734441492
 30
0.0
 11
12986.42775520236
 21
-15.79840734441388
 31
0.0
  0
LINE
  5
229
100
AcDbEntity
  8
NUTS
  6
CONTINUOUS
100
AcDbLine
 10
12981.42775520231
 20
-11.75695546010427
 30
0.0
 11
12986.42775520234
 21
-11.75695546008658
 31
0.0
  0
LINE
  5
22A
100
AcDbEntity
  8
NUTS
  6
CONTINUOUS
100
AcDbLine
 10
12981.42775520227
 20
0.3674001928963395
 30
0.0
 11
12986.42775520236
 21
0.3674001928953018
 31
0.0
  0
LINE
  5
22B
100
AcDbEntity
  8
NUTS
  6
CONTINUOUS
100
AcDbLine
 10
12981.42775520231
 20
-3.674051691414307
 30
0.0
 11
12986.42775520234
 21
-3.674051691431994
 31
0.0
  0
CIRCLE
  5
22C
100
AcDbEntity
  8
NUTS
  6
CONTINUOUS
100
AcDbCircle
 10
13981.95931211232
 20
907.7485422159965
 30
0.0
 40
3.999999999999999
  0
LWPOLYLINE
  5
22D
100
AcDbEntity
  8
NUTS
  6
CONTINUOUS
100
AcDbPolyline
 90
        6
 70
     1
 43
0.0
 10
13988.95931211231
 20
911.7899941003235
 10
13981.95931211231
 20
915.831445984651
 10
13974.95931211232
 20
911.7899941003235
 10
13974.95931211232
 20
903.7070903316692
 10
13981.95931211231
 20
899.6656384473418
 10
13988.95931211231
 20
903.7070903316692
  0
CIRCLE
  5
22E
100
AcDbEntity
  8
NUTS
  6
CONTINUOUS
100
AcDbCircle
 10
13941.95931211231
 20
907.7485422159961
 30
0.0
 40
3.999999999999999
  0
LWPOLYLINE
  5
22F
100
AcDbEntity
  8
NUTS
  6
CONTINUOUS
100
AcDbPolyline
 90
        6
 70
     1
 43
0.0
 10
13939.86730267726
 20
915.556027717548
 10
13947.67478817881
 20
913.4640182824893
 10
13949.76679761387
 20
905.6565327809375
 10
13944.05132154738
 20
899.9410567144428
 10
13936.24383604582
 20
902.0330661495016
 10
13934.15182661077
 20
909.8405516510535
  0
CIRCLE
  5
230
100
AcDbEntity
  8
NUTS
  6
CONTINUOUS
100
AcDbCircle
 10
13981.95931211232
 20
797.7485422159964
 30
0.0
 40
3.999999999999999
  0
LWPOLYLINE
  5
231
100
AcDbEntity
  8
NUTS
  6
CONTINUOUS
100
AcDbPolyline
 90
        6
 70
     1
 43
0.0
 10
13988.95931211231
 20
801.7899941003236
 10
13981.95931211231
 20
805.831445984651
 10
13974.95931211232
 20
801.7899941003236
 10
13974.95931211232
 20
793.7070903316691
 10
13981.95931211231
 20
789.6656384473417
 10
13988.95931211231
 20
793.7070903316691
  0
CIRCLE
  5
232
100
AcDbEntity
  8
NUTS
  6
CONTINUOUS
100
AcDbCircle
 10
13941.95931211231
 20
797.7485422159961
 30
0.0
 40
3.999999999999999
  0
LWPOLYLINE
  5
233
100
AcDbEntity
  8
NUTS
  6
CONTINUOUS
100
AcDbPolyline
 90
        6
 70
     1
 43
0.0
 10
13939.86730267726
 20
805.556027717548
 10
13947.67478817881
 20
803.4640182824892
 10
13949.76679761387
 20
795.6565327809374
 10
13944.05132154738
 20
789.9410567144429
 10
13936.24383604582
 20
792.0330661495016
 10
13934.15182661077
 20
799.8405516510534
  0
CIRCLE
  5
234
100
AcDbEntity
  8
NUTS
  6
CONTINUOUS
100
AcDbCircle
 10
13981.95931211232
 20
687.7485422159963
 30
0.0
 40
3.999999999999999
  0
LWPOLYLINE
  5
235
100
AcDbEntity
  8
NUTS
  6
CONTINUOUS
100
AcDbPolyline
 90
        6
 70
     1
 43
0.0
 10
13988.95931211231
 20
691.7899941003236
 10
13981.95931211231
 20
695.8314459846509
 10
13974.95931211232
 20
691.7899941003236
 10
13974.95931211232
 20
683.7070903316692
 10
13981.95931211231
 20
679.6656384473418
 10
13988.95931211231
 20
683.7070903316692
  0
CIRCLE
  5
236
100
AcDbEntity
  8
NUTS
  6
CONTINUOUS
100
AcDbCircle
 10
13941.95931211231
 20
687.7485422159962
 30
0.0
 40
3.999999999999999
  0
LWPOLYLINE
  5
237
100
AcDbEntity
  8
NUTS
  6
CONTINUOUS
100
AcDbPolyline
 90
        6
 70
     1
 43
0.0
 10
13939.86730267726
 20
695.556027717548
 10
13947.67478817881
 20
693.4640182824892
 10
13949.76679761387
 20
685.6565327809374
 10
13944.05132154738
 20
679.941056714443
 10
13936.24383604582
 20
682.0330661495017
 10
13934.15182661077
 20
689.8405516510535
  0
CIRCLE
  5
238
100
AcDbEntity
  8
NUTS
  6
CONTINUOUS
100
AcDbCircle
 10
13981.95931211232
 20
587.7485422159963
 30
0.0
 40
3.999999999999999
  0
LWPOLYLINE
  5
239
100
AcDbEntity
  8
NUTS
  6
CONTINUOUS
100
AcDbPolyline
 90
        6
 70
     1
 43
0.0
 10
13988.95931211231
 20
591.7899941003236
 10
13981.95931211231
 20
595.8314459846509
 10
13974.95931211232
 20
591.7899941003236
 10
13974.95931211232
 20
583.7070903316692
 10
13981.95931211231
 20
579.6656384473418
 10
13988.95931211231
 20
583.7070903316692
  0
CIRCLE
  5
23A
100
AcDbEntity
  8
NUTS
  6
CONTINUOUS
100
AcDbCircle
 10
13941.95931211231
 20
587.7485422159962
 30
0.0
 40
3.999999999999999
  0
LWPOLYLINE
  5
23B
100
AcDbEntity
  8
NUTS
  6
CONTINUOUS
100
AcDbPolyline
 90
        6
 70
     1
 43
0.0
 10
13939.86730267726
 20
595.556027717548
 10
13947.67478817881
 20
593.4640182824892
 10
13949.76679761387
 20
585.6565327809374
 10
13944.05132154738
 20
579.941056714443
 10
13936.24383604582
 20
582.0330661495017
 10
13934.15182661077
 20
589.8405516510535
  0
CIRCLE
  5
23C
100
AcDbEntity
  8
NUTS
  6
CONTINUOUS
100
AcDbCircle
 10
13981.95931211232
 20
477.7485422159964
 30
0.0
 40
3.999999999999999
  0
LWPOLYLINE
  5
23D
100
AcDbEntity
  8
NUTS
  6
CONTINUOUS
100
AcDbPolyline
 90
        6
 70
     1
 43
0.0
 10
13988.95931211231
 20
481.7899941003235
 10
13981.95931211231
 20
485.831445984651
 10
13974.95931211232
 20
481.7899941003235
 10
13974.95931211232
 20
473.7070903316692
 10
13981.95931211231
 20
469.6656384473418
 10
13988.95931211231
 20
473.7070903316692
  0
CIRCLE
  5
23E
100
AcDbEntity
  8
NUTS
  6
CONTINUOUS
100
AcDbCircle
 10
13941.95931211231
 20
477.7485422159962
 30
0.0
 40
3.999999999999999
  0
LWPOLYLINE
  5
23F
100
AcDbEntity
  8
NUTS
  6
CONTINUOUS
100
AcDbPolyline
 90
        6
 70
     1
 43
0.0
 10
13939.86730267726
 20
485.556027717548
 10
13947.67478817881
 20
483.4640182824893
 10
13949.76679761387
 20
475.6565327809375
 10
13944.05132154738
 20
469.941056714443
 10
13936.24383604582
 20
472.0330661495016
 10
13934.15182661077
 20
479.8405516510534
  0
CIRCLE
  5
240
100
AcDbEntity
  8
NUTS
  6
CONTINUOUS
100
AcDbCircle
 10
13981.95931211232
 20
367.7485422159964
 30
0.0
 40
3.999999999999999
  0
LWPOLYLINE
  5
241
100
AcDbEntity
  8
NUTS
  6
CONTINUOUS
100
AcDbPolyline
 90
        6
 70
     1
 43
0.0
 10
13988.95931211231
 20
371.7899941003236
 10
13981.95931211231
 20
375.831445984651
 10
13974.95931211232
 20
371.7899941003236
 10
13974.95931211232
 20
363.7070903316692
 10
13981.95931211231
 20
359.6656384473418
 10
13988.95931211231
 20
363.7070903316692
  0
CIRCLE
  5
242
100
AcDbEntity
  8
NUTS
  6
CONTINUOUS
100
AcDbCircle
 10
13941.95931211231
 20
367.7485422159962
 30
0.0
 40
3.999999999999999
  0
LWPOLYLINE
  5
243
100
AcDbEntity
  8
NUTS
  6
CONTINUOUS
100
AcDbPolyline
 90
        6
 70
     1
 43
0.0
 10
13939.86730267726
 20
375.556027717548
 10
13947.67478817881
 20
373.4640182824893
 10
13949.76679761387
 20
365.6565327809375
 10
13944.05132154738
 20
359.9410567144429
 10
13936.24383604582
 20
362.0330661495017
 10
13934.15182661077
 20
369.8405516510535
  0
LINE
  5
244
100
AcDbEntity
  8
NUTS
  6
CONTINUOUS
100
AcDbLine
 10
13933.87640834368
 20
-1183.105257829949
 30
0.0
 11
13950.04221588093
 21
-1183.105257829853
 31
0.0
  0
LINE
  5
245
100
AcDbEntity
  8
NUTS
  6
CONTINUOUS
100
AcDbLine
 10
13933.87640834368
 20
-1178.105257829848
 30
0.0
 11
13950.04221588093
 21
-1178.105257830048
 31
0.0
  0
LINE
  5
246
100
AcDbEntity
  8
NUTS
  6
CONTINUOUS
100
AcDbLine
 10
13933.87640834368
 20
-1178.105257829851
 30
0.0
 11
13933.87640834368
 21
-1183.105257829949
 31
0.0
  0
LINE
  5
247
100
AcDbEntity
  8
NUTS
  6
CONTINUOUS
100
AcDbLine
 10
13937.91786022799
 20
-1178.1052578299
 30
0.0
 11
13937.91786022801
 21
-1183.105257829925
 31
0.0
  0
LINE
  5
248
100
AcDbEntity
  8
NUTS
  6
CONTINUOUS
100
AcDbLine
 10
13950.04221588099
 20
-1178.105257829851
 30
0.0
 11
13950.04221588099
 21
-1183.105257829949
 31
0.0
  0
LINE
  5
249
100
AcDbEntity
  8
NUTS
  6
CONTINUOUS
100
AcDbLine
 10
13946.00076399668
 20
-1178.1052578299
 30
0.0
 11
13946.00076399666
 21
-1183.105257829925
 31
0.0
  0
LINE
  5
24A
100
AcDbEntity
  8
NUTS
  6
CONTINUOUS
100
AcDbLine
 10
13937.95931211189
 20
-1187.105257829996
 30
0.0
 11
13945.95931211249
 21
-1187.105257829992
 31
0.0
  0
LINE
  5
24B
100
AcDbEntity
  8
NUTS
  6
CONTINUOUS
100
AcDbLine
 10
13945.95931211249
 20
-1187.105257830006
 30
0.0
 11
13945.9593121123
 21
-1183.105257829915
 31
0.0
  0
LINE
  5
24C
100
AcDbEntity
  8
NUTS
  6
CONTINUOUS
100
AcDbLine
 10
13937.95931211189
 20
-1187.10525783001
 30
0.0
 11
13937.9593121123
 21
-1183.105257829915
 31
0.0
  0
LINE
  5
24D
100
AcDbEntity
  8
NUTS
  6
CONTINUOUS
100
AcDbLine
 10
13990.042215881
 20
-1183.105257829681
 30
0.0
 11
13973.87640834376
 21
-1183.10525782974
 31
0.0
  0
LINE
  5
24E
100
AcDbEntity
  8
NUTS
  6
CONTINUOUS
100
AcDbLine
 10
13990.04221588096
 20
-1178.105257829581
 30
0.0
 11
13973.87640834371
 21
-1178.105257829934
 31
0.0
  0
LINE
  5
24F
100
AcDbEntity
  8
NUTS
  6
CONTINUOUS
100
AcDbLine
 10
13990.04221588096
 20
-1178.105257829584
 30
0.0
 11
13990.042215881
 21
-1183.105257829681
 31
0.0
  0
LINE
  5
250
100
AcDbEntity
  8
NUTS
  6
CONTINUOUS
100
AcDbLine
 10
13986.00076399664
 20
-1178.105257829672
 30
0.0
 11
13986.00076399667
 21
-1183.105257829696
 31
0.0
  0
LINE
  5
251
100
AcDbEntity
  8
NUTS
  6
CONTINUOUS
100
AcDbLine
 10
13973.87640834364
 20
-1178.105257829738
 30
0.0
 11
13973.87640834369
 21
-1183.105257829835
 31
0.0
  0
LINE
  5
252
100
AcDbEntity
  8
NUTS
  6
CONTINUOUS
100
AcDbLine
 10
13977.91786022795
 20
-1178.105257829749
 30
0.0
 11
13977.91786022802
 21
-1183.105257829773
 31
0.0
  0
LINE
  5
253
100
AcDbEntity
  8
NUTS
  6
CONTINUOUS
100
AcDbLine
 10
13985.95931211283
 20
-1187.105257829768
 30
0.0
 11
13977.95931211223
 21
-1187.10525782984
 31
0.0
  0
LINE
  5
254
100
AcDbEntity
  8
NUTS
  6
CONTINUOUS
100
AcDbLine
 10
13977.95931211223
 20
-1187.105257829853
 30
0.0
 11
13977.95931211238
 21
-1183.105257829763
 31
0.0
  0
LINE
  5
255
100
AcDbEntity
  8
NUTS
  6
CONTINUOUS
100
AcDbLine
 10
13985.95931211283
 20
-1187.105257829781
 30
0.0
 11
13985.95931211238
 21
-1183.105257829687
 31
0.0
  0
LWPOLYLINE
  5
256
100
AcDbEntity
  8
SIDEFLAP
  6
CONTINUOUS
100
AcDbPolyline
 90
        6
 70
     1
 43
0.0
 10
14024.64903852882
 20
647.7867378608505
 10
14014.61084288396
 20
645.0970114443455
 10
14011.92111646746
 20
635.0588157994929
 10
14019.26958569581
 20
627.7103465711441
 10
14029.30778134066
 20
630.4000729876477
 10
14031.99750775717
 20
640.4382686325017
  0
CIRCLE
  5
257
100
AcDbEntity
  8
HINGES
  6
CONTINUOUS
100
AcDbCircle
 10
12613.75424772779
 20
168.8483290245829
 30
0.0
 40
7.499999999999999
  0
LINE
  5
258
100
AcDbEntity
  8
HINGES
  6
CONTINUOUS
100
AcDbLine
 10
12607.9471999121
 20
164.1019413806708
 30
0.0
 11
12618.5006353717
 21
174.6553768402741
 31
0.0
  0
LINE
  5
259
100
AcDbEntity
  8
HINGES
  6
CONTINUOUS
100
AcDbLine
 10
12609.00786008388
 20
163.0412812088917
 30
0.0
 11
12619.56129554348
 21
173.594716668495
 31
0.0
  0
CIRCLE
  5
25A
100
AcDbEntity
  8
HINGES
  6
CONTINUOUS
100
AcDbCircle
 10
12613.75424772779
 20
168.8483290245829
 30
0.0
 40
7.999999999999999
  0
CIRCLE
  5
25B
100
AcDbEntity
  8
HINGES
  6
CONTINUOUS
100
AcDbCircle
 10
12653.75424772779
 20
168.8483290245829
 30
0.0
 40
7.499999999999999
  0
LINE
  5
25C
100
AcDbEntity
  8
HINGES
  6
CONTINUOUS
100
AcDbLine
 10
12647.9471999121
 20
164.1019413806708
 30
0.0
 11
12658.5006353717
 21
174.6553768402741
 31
0.0
  0
LINE
  5
25D
100
AcDbEntity
  8
HINGES
  6
CONTINUOUS
100
AcDbLine
 10
12649.00786008388
 20
163.0412812088917
 30
0.0
 11
12659.56129554348
 21
173.594716668495
 31
0.0
  0
CIRCLE
  5
25E
100
AcDbEntity
  8
HINGES
  6
CONTINUOUS
100
AcDbCircle
 10
12653.75424772779
 20
168.8483290245829
 30
0.0
 40
7.999999999999999
  0
CIRCLE
  5
25F
100
AcDbEntity
  8
HINGES
  6
CONTINUOUS
100
AcDbCircle
 10
12613.75424772779
 20
58.84832902458294
 30
0.0
 40
7.499999999999999
  0
LINE
  5
260
100
AcDbEntity
  8
HINGES
  6
CONTINUOUS
100
AcDbLine
 10
12607.9471999121
 20
54.10194138067086
 30
0.0
 11
12618.5006353717
 21
64.6553768402741
 31
0.0
  0
LINE
  5
261
100
AcDbEntity
  8
HINGES
  6
CONTINUOUS
100
AcDbLine
 10
12609.00786008388
 20
53.04128120889178
 30
0.0
 11
12619.56129554348
 21
63.59471666849501
 31
0.0
  0
CIRCLE
  5
262
100
AcDbEntity
  8
HINGES
  6
CONTINUOUS
100
AcDbCircle
 10
12613.75424772779
 20
58.84832902458294
 30
0.0
 40
7.999999999999999
  0
CIRCLE
  5
263
100
AcDbEntity
  8
HINGES
  6
CONTINUOUS
100
AcDbCircle
 10
12653.75424772779
 20
58.84832902458294
 30
0.0
 40
7.499999999999999
  0
LINE
  5
264
100
AcDbEntity
  8
HINGES
  6
CONTINUOUS
100
AcDbLine
 10
12647.9471999121
 20
54.10194138067086
 30
0.0
 11
12658.5006353717
 21
64.6553768402741
 31
0.0
  0
LINE
  5
265
100
AcDbEntity
  8
HINGES
  6
CONTINUOUS
100
AcDbLine
 10
12649.00786008388
 20
53.04128120889178
 30
0.0
 11
12659.56129554348
 21
63.59471666849501
 31
0.0
  0
CIRCLE
  5
266
100
AcDbEntity
  8
HINGES
  6
CONTINUOUS
100
AcDbCircle
 10
12653.75424772779
 20
58.84832902458294
 30
0.0
 40
7.999999999999999
  0
CIRCLE
  5
267
100
AcDbEntity
  8
HINGES
  6
CONTINUOUS
100
AcDbCircle
 10
12613.75424772779
 20
-51.15167097541708
 30
0.0
 40
7.499999999999999
  0
LINE
  5
268
100
AcDbEntity
  8
HINGES
  6
CONTINUOUS
100
AcDbLine
 10
12607.9471999121
 20
-55.89805861932916
 30
0.0
 11
12618.5006353717
 21
-45.34462315972592
 31
0.0
  0
LINE
  5
269
100
AcDbEntity
  8
HINGES
  6
CONTINUOUS
100
AcDbLine
 10
12609.00786008388
 20
-56.95871879110824
 30
0.0
 11
12619.56129554348
 21
-46.40528333150501
 31
0.0
  0
CIRCLE
  5
26A
100
AcDbEntity
  8
HINGES
  6
CONTINUOUS
100
AcDbCircle
 10
12613.75424772779
 20
-51.15167097541708
 30
0.0
 40
7.999999999999999
  0
CIRCLE
  5
26B
100
AcDbEntity
  8
HINGES
  6
CONTINUOUS
100
AcDbCircle
 10
12653.75424772779
 20
-51.15167097541708
 30
0.0
 40
7.499999999999999
  0
LINE
  5
26C
100
AcDbEntity
  8
HINGES
  6
CONTINUOUS
100
AcDbLine
 10
12647.9471999121
 20
-55.89805861932916
 30
0.0
 11
12658.5006353717
 21
-45.34462315972592
 31
0.0
  0
LINE
  5
26D
100
AcDbEntity
  8
HINGES
  6
CONTINUOUS
100
AcDbLine
 10
12649.00786008388
 20
-56.95871879110824
 30
0.0
 11
12659.56129554348
 21
-46.40528333150501
 31
0.0
  0
CIRCLE
  5
26E
100
AcDbEntity
  8
HINGES
  6
CONTINUOUS
100
AcDbCircle
 10
12653.75424772779
 20
-51.15167097541708
 30
0.0
 40
7.999999999999999
  0
CIRCLE
  5
26F
100
AcDbEntity
  8
HINGES
  6
CONTINUOUS
100
AcDbCircle
 10
13941.95931211232
 20
-244.396591868245
 30
0.0
 40
7.499999999999999
  0
LINE
  5
270
100
AcDbEntity
  8
HINGES
  6
CONTINUOUS
100
AcDbLine
 10
13936.15226429663
 20
-249.1429795121571
 30
0.0
 11
13946.70569975623
 21
-238.5895440525538
 31
0.0
  0
LINE
  5
271
100
AcDbEntity
  8
HINGES
  6
CONTINUOUS
100
AcDbLine
 10
13937.2129244684
 20
-250.2036396839361
 30
0.0
 11
13947.76635992801
 21
-239.6502042243329
 31
0.0
  0
CIRCLE
  5
272
100
AcDbEntity
  8
HINGES
  6
CONTINUOUS
100
AcDbCircle
 10
13941.95931211232
 20
-244.396591868245
 30
0.0
 40
7.999999999999999
  0
CIRCLE
  5
273
100
AcDbEntity
  8
HINGES
  6
CONTINUOUS
100
AcDbCircle
 10
13981.95931211232
 20
-244.396591868245
 30
0.0
 40
7.499999999999999
  0
LINE
  5
274
100
AcDbEntity
  8
HINGES
  6
CONTINUOUS
100
AcDbLine
 10
13976.15226429662
 20
-249.1429795121571
 30
0.0
 11
13986.70569975623
 21
-238.5895440525538
 31
0.0
  0
LINE
  5
275
100
AcDbEntity
  8
HINGES
  6
CONTINUOUS
100
AcDbLine
 10
13977.2129244684
 20
-250.2036396839361
 30
0.0
 11
13987.76635992801
 21
-239.6502042243329
 31
0.0
  0
CIRCLE
  5
276
100
AcDbEntity
  8
HINGES
  6
CONTINUOUS
100
AcDbCircle
 10
13981.95931211232
 20
-244.396591868245
 30
0.0
 40
7.999999999999999
  0
CIRCLE
  5
277
100
AcDbEntity
  8
HINGES
  6
CONTINUOUS
100
AcDbCircle
 10
13941.95931211232
 20
-354.396591868245
 30
0.0
 40
7.499999999999999
  0
LINE
  5
278
100
AcDbEntity
  8
HINGES
  6
CONTINUOUS
100
AcDbLine
 10
13936.15226429663
 20
-359.142979512157
 30
0.0
 11
13946.70569975623
 21
-348.5895440525538
 31
0.0
  0
LINE
  5
279
100
AcDbEntity
  8
HINGES
  6
CONTINUOUS
100
AcDbLine
 10
13937.2129244684
 20
-360.2036396839361
 30
0.0
 11
13947.76635992801
 21
-349.6502042243329
 31
0.0
  0
CIRCLE
  5
27A
100
AcDbEntity
  8
HINGES
  6
CONTINUOUS
100
AcDbCircle
 10
13941.95931211232
 20
-354.396591868245
 30
0.0
 40
7.999999999999999
  0
CIRCLE
  5
27B
100
AcDbEntity
  8
HINGES
  6
CONTINUOUS
100
AcDbCircle
 10
13981.95931211232
 20
-354.396591868245
 30
0.0
 40
7.499999999999999
  0
LINE
  5
27C
100
AcDbEntity
  8
HINGES
  6
CONTINUOUS
100
AcDbLine
 10
13976.15226429662
 20
-359.142979512157
 30
0.0
 11
13986.70569975623
 21
-348.5895440525538
 31
0.0
  0
LINE
  5
27D
100
AcDbEntity
  8
HINGES
  6
CONTINUOUS
100
AcDbLine
 10
13977.2129244684
 20
-360.2036396839361
 30
0.0
 11
13987.76635992801
 21
-349.6502042243329
 31
0.0
  0
CIRCLE
  5
27E
100
AcDbEntity
  8
HINGES
  6
CONTINUOUS
100
AcDbCircle
 10
13981.95931211232
 20
-354.396591868245
 30
0.0
 40
7.999999999999999
  0
CIRCLE
  5
27F
100
AcDbEntity
  8
HINGES
  6
CONTINUOUS
100
AcDbCircle
 10
13941.95931211232
 20
-464.396591868245
 30
0.0
 40
7.499999999999999
  0
LINE
  5
280
100
AcDbEntity
  8
HINGES
  6
CONTINUOUS
100
AcDbLine
 10
13936.15226429663
 20
-469.1429795121571
 30
0.0
 11
13946.70569975623
 21
-458.5895440525539
 31
0.0
  0
LINE
  5
281
100
AcDbEntity
  8
HINGES
  6
CONTINUOUS
100
AcDbLine
 10
13937.2129244684
 20
-470.2036396839361
 30
0.0
 11
13947.76635992801
 21
-459.6502042243329
 31
0.0
  0
CIRCLE
  5
282
100
AcDbEntity
  8
HINGES
  6
CONTINUOUS
100
AcDbCircle
 10
13941.95931211232
 20
-464.396591868245
 30
0.0
 40
7.999999999999999
  0
CIRCLE
  5
283
100
AcDbEntity
  8
HINGES
  6
CONTINUOUS
100
AcDbCircle
 10
13981.95931211232
 20
-464.396591868245
 30
0.0
 40
7.499999999999999
  0
LINE
  5
284
100
AcDbEntity
  8
HINGES
  6
CONTINUOUS
100
AcDbLine
 10
13976.15226429662
 20
-469.1429795121571
 30
0.0
 11
13986.70569975623
 21
-458.5895440525539
 31
0.0
  0
LINE
  5
285
100
AcDbEntity
  8
HINGES
  6
CONTINUOUS
100
AcDbLine
 10
13977.2129244684
 20
-470.2036396839361
 30
0.0
 11
13987.76635992801
 21
-459.6502042243329
 31
0.0
  0
CIRCLE
  5
286
100
AcDbEntity
  8
HINGES
  6
CONTINUOUS
100
AcDbCircle
 10
13981.95931211232
 20
-464.396591868245
 30
0.0
 40
7.999999999999999
  0
CIRCLE
  5
287
100
AcDbEntity
  8
HINGES
  6
CONTINUOUS
100
AcDbCircle
 10
13941.95931211232
 20
-564.3965918682449
 30
0.0
 40
7.499999999999999
  0
LINE
  5
288
100
AcDbEntity
  8
HINGES
  6
CONTINUOUS
100
AcDbLine
 10
13936.15226429663
 20
-569.142979512157
 30
0.0
 11
13946.70569975623
 21
-558.5895440525538
 31
0.0
  0
LINE
  5
289
100
AcDbEntity
  8
HINGES
  6
CONTINUOUS
100
AcDbLine
 10
13937.2129244684
 20
-570.2036396839361
 30
0.0
 11
13947.76635992801
 21
-559.6502042243328
 31
0.0
  0
CIRCLE
  5
28A
100
AcDbEntity
  8
HINGES
  6
CONTINUOUS
100
AcDbCircle
 10
13941.95931211232
 20
-564.3965918682449
 30
0.0
 40
7.999999999999999
  0
CIRCLE
  5
28B
100
AcDbEntity
  8
HINGES
  6
CONTINUOUS
100
AcDbCircle
 10
13981.95931211232
 20
-564.3965918682449
 30
0.0
 40
7.499999999999999
  0
LINE
  5
28C
100
AcDbEntity
  8
HINGES
  6
CONTINUOUS
100
AcDbLine
 10
13976.15226429662
 20
-569.142979512157
 30
0.0
 11
13986.70569975623
 21
-558.5895440525538
 31
0.0
  0
LINE
  5
28D
100
AcDbEntity
  8
HINGES
  6
CONTINUOUS
100
AcDbLine
 10
13977.2129244684
 20
-570.2036396839361
 30
0.0
 11
13987.76635992801
 21
-559.6502042243328
 31
0.0
  0
CIRCLE
  5
28E
100
AcDbEntity
  8
HINGES
  6
CONTINUOUS
100
AcDbCircle
 10
13981.95931211232
 20
-564.3965918682449
 30
0.0
 40
7.999999999999999
  0
CIRCLE
  5
28F
100
AcDbEntity
  8
HINGES
  6
CONTINUOUS
100
AcDbCircle
 10
13941.95931211232
 20
-674.3965918682449
 30
0.0
 40
7.499999999999999
  0
LINE
  5
290
100
AcDbEntity
  8
HINGES
  6
CONTINUOUS
100
AcDbLine
 10
13936.15226429663
 20
-679.142979512157
 30
0.0
 11
13946.70569975623
 21
-668.5895440525538
 31
0.0
  0
LINE
  5
291
100
AcDbEntity
  8
HINGES
  6
CONTINUOUS
100
AcDbLine
 10
13937.2129244684
 20
-680.2036396839361
 30
0.0
 11
13947.76635992801
 21
-669.6502042243329
 31
0.0
  0
CIRCLE
  5
292
100
AcDbEntity
  8
HINGES
  6
CONTINUOUS
100
AcDbCircle
 10
13941.95931211232
 20
-674.3965918682449
 30
0.0
 40
7.999999999999999
  0
CIRCLE
  5
293
100
AcDbEntity
  8
HINGES
  6
CONTINUOUS
100
AcDbCircle
 10
13981.95931211232
 20
-674.3965918682449
 30
0.0
 40
7.499999999999999
  0
LINE
  5
294
100
AcDbEntity
  8
HINGES
  6
CONTINUOUS
100
AcDbLine
 10
13976.15226429662
 20
-679.142979512157
 30
0.0
 11
13986.70569975623
 21
-668.5895440525538
 31
0.0
  0
LINE
  5
295
100
AcDbEntity
  8
HINGES
  6
CONTINUOUS
100
AcDbLine
 10
13977.2129244684
 20
-680.2036396839361
 30
0.0
 11
13987.76635992801
 21
-669.6502042243329
 31
0.0
  0
CIRCLE
  5
296
100
AcDbEntity
  8
HINGES
  6
CONTINUOUS
100
AcDbCircle
 10
13981.95931211232
 20
-674.3965918682449
 30
0.0
 40
7.999999999999999
  0
CIRCLE
  5
297
100
AcDbEntity
  8
HINGES
  6
CONTINUOUS
100
AcDbCircle
 10
13941.95931211232
 20
-784.396591868245
 30
0.0
 40
7.499999999999999
  0
LINE
  5
298
100
AcDbEntity
  8
HINGES
  6
CONTINUOUS
100
AcDbLine
 10
13936.15226429663
 20
-789.1429795121571
 30
0.0
 11
13946.70569975623
 21
-778.5895440525538
 31
0.0
  0
LINE
  5
299
100
AcDbEntity
  8
HINGES
  6
CONTINUOUS
100
AcDbLine
 10
13937.2129244684
 20
-790.2036396839362
 30
0.0
 11
13947.76635992801
 21
-779.6502042243329
 31
0.0
  0
CIRCLE
  5
29A
100
AcDbEntity
  8
HINGES
  6
CONTINUOUS
100
AcDbCircle
 10
13941.95931211232
 20
-784.396591868245
 30
0.0
 40
7.999999999999999
  0
CIRCLE
  5
29B
100
AcDbEntity
  8
HINGES
  6
CONTINUOUS
100
AcDbCircle
 10
13981.95931211232
 20
-784.396591868245
 30
0.0
 40
7.499999999999999
  0
LINE
  5
29C
100
AcDbEntity
  8
HINGES
  6
CONTINUOUS
100
AcDbLine
 10
13976.15226429662
 20
-789.1429795121571
 30
0.0
 11
13986.70569975623
 21
-778.5895440525538
 31
0.0
  0
LINE
  5
29D
100
AcDbEntity
  8
HINGES
  6
CONTINUOUS
100
AcDbLine
 10
13977.2129244684
 20
-790.2036396839362
 30
0.0
 11
13987.76635992801
 21
-779.6502042243329
 31
0.0
  0
CIRCLE
  5
29E
100
AcDbEntity
  8
HINGES
  6
CONTINUOUS
100
AcDbCircle
 10
13981.95931211232
 20
-784.396591868245
 30
0.0
 40
7.999999999999999
  0
TEXT
  5
29F
100
AcDbEntity
  8
COMMENTS
100
AcDbText
 10
14620.04360543773
 20
818.9808470455126
 30
0.0
 40
15.37606532520528
  1
Drg version 1.0 / 15 Nov 2013
 41
0.6000000000000001
  7
ARIAL
 11
14620.04360543773
 21
818.9808470455126
 31
0.0
100
AcDbText
 73
     1
  0
ENDSEC
  0
SECTION
  2
OBJECTS
  0
DICTIONARY
  5
C
100
AcDbDictionary
  3
ACAD_GROUP
350
D
  3
ACAD_MLINESTYLE
350
1B
  3
ACDBVARIABLEDICTIONARY
350
1E
  0
DICTIONARY
  5
D
102
{ACAD_REACTORS
330
C
102
}
100
AcDbDictionary
  0
DICTIONARY
  5
1B
102
{ACAD_REACTORS
330
C
102
}
100
AcDbDictionary
  3
STANDARD
350
1C
  0
DICTIONARY
  5
1E
102
{ACAD_REACTORS
330
C
102
}
100
AcDbDictionary
  3
DIMADEC
350
1F
  0
MLINESTYLE
  5
1C
102
{ACAD_REACTORS
330
1B
102
}
100
AcDbMlineStyle
  2
STANDARD
 70
     0
  3

 62
   256
 51
90.0
 52
90.0
 71
     2
 49
0.5
 62
   256
  6
BYLAYER
 49
-0.5
 62
   256
  6
BYLAYER
  0
DICTIONARYVAR
  5
1F
102
{ACAD_REACTORS
330
1E
102
}
100
DictionaryVariables
280
     0
  1
-1
  0
ENDSEC
  0
EOF
