  0
SECTION
  2
HEADER
  9
$ACADVER
  1
AC1014
  9
$ACADMAINTVER
 70
     5
  9
$DWGCODEPAGE
  3
ANSI_1252
  9
$INSBASE
 10
0.0
 20
0.0
 30
0.0
  9
$EXTMIN
 10
1.000000000000000E+20
 20
1.000000000000000E+20
 30
1.000000000000000E+20
  9
$EXTMAX
 10
-1.000000000000000E+20
 20
-1.000000000000000E+20
 30
-1.000000000000000E+20
  9
$LIMMIN
 10
0.0
 20
0.0
  9
$LIMMAX
 10
12.0
 20
9.0
  9
$ORTHOMODE
 70
     0
  9
$REGENMODE
 70
     1
  9
$FILLMODE
 70
     1
  9
$QTEXTMODE
 70
     0
  9
$MIRRTEXT
 70
     1
  9
$DRAGMODE
 70
     2
  9
$LTSCALE
 40
1.0
  9
$OSMODE
 70
     0
  9
$ATTMODE
 70
     0
  9
$TEXTSIZE
 40
144.3069277199129
  9
$TRACEWID
 40
0.05
  9
$TEXTSTYLE
  7
STANDARD
  9
$CLAYER
  8
0
  9
$CELTYPE
  6
BYLAYER
  9
$CECOLOR
 62
   256
  9
$CELTSCALE
 40
1.0
  9
$DELOBJ
 70
     1
  9
$DISPSILH
 70
     0
  9
$DIMSCALE
 40
1.0
  9
$DIMASZ
 40
0.18
  9
$DIMEXO
 40
0.0625
  9
$DIMDLI
 40
0.38
  9
$DIMRND
 40
0.0
  9
$DIMDLE
 40
0.0
  9
$DIMEXE
 40
0.18
  9
$DIMTP
 40
0.0
  9
$DIMTM
 40
0.0
  9
$DIMTXT
 40
0.2840687553541594
  9
$DIMCEN
 40
0.09
  9
$DIMTSZ
 40
0.0
  9
$DIMTOL
 70
     0
  9
$DIMLIM
 70
     0
  9
$DIMTIH
 70
     1
  9
$DIMTOH
 70
     1
  9
$DIMSE1
 70
     0
  9
$DIMSE2
 70
     0
  9
$DIMTAD
 70
     0
  9
$DIMZIN
 70
     0
  9
$DIMBLK
  1

  9
$DIMASO
 70
     1
  9
$DIMSHO
 70
     1
  9
$DIMPOST
  1

  9
$DIMAPOST
  1

  9
$DIMALT
 70
     0
  9
$DIMALTD
 70
     2
  9
$DIMALTF
 40
25.4
  9
$DIMLFAC
 40
1.0
  9
$DIMTOFL
 70
     0
  9
$DIMTVP
 40
0.0
  9
$DIMTIX
 70
     0
  9
$DIMSOXD
 70
     0
  9
$DIMSAH
 70
     0
  9
$DIMBLK1
  1

  9
$DIMBLK2
  1

  9
$DIMSTYLE
  2
STANDARD
  9
$DIMCLRD
 70
     0
  9
$DIMCLRE
 70
     0
  9
$DIMCLRT
 70
     0
  9
$DIMTFAC
 40
1.0
  9
$DIMGAP
 40
0.09
  9
$DIMJUST
 70
     0
  9
$DIMSD1
 70
     0
  9
$DIMSD2
 70
     0
  9
$DIMTOLJ
 70
     1
  9
$DIMTZIN
 70
     0
  9
$DIMALTZ
 70
     0
  9
$DIMALTTZ
 70
     0
  9
$DIMFIT
 70
     3
  9
$DIMUPT
 70
     0
  9
$DIMUNIT
 70
     4
  9
$DIMDEC
 70
    -1
  9
$DIMTDEC
 70
     4
  9
$DIMALTU
 70
     2
  9
$DIMALTTD
 70
     2
  9
$DIMTXSTY
  7
STANDARD
  9
$DIMAUNIT
 70
     1
  9
$LUNITS
 70
     2
  9
$LUPREC
 70
     0
  9
$SKETCHINC
 40
0.1
  9
$FILLETRAD
 40
19.99999999999999
  9
$AUNITS
 70
     0
  9
$AUPREC
 70
     1
  9
$MENU
  1
.
  9
$ELEVATION
 40
0.0
  9
$PELEVATION
 40
0.0
  9
$THICKNESS
 40
0.0
  9
$LIMCHECK
 70
     0
  9
$BLIPMODE
 70
     0
  9
$CHAMFERA
 40
5.0
  9
$CHAMFERB
 40
5.0
  9
$CHAMFERC
 40
0.0
  9
$CHAMFERD
 40
0.0
  9
$SKPOLY
 70
     0
  9
$TDCREATE
 40
0.0000000000
  9
$TDUPDATE
 40
0.0000000000
  9
$TDINDWG
 40
0.0000000000
  9
$TDUSRTIMER
 40
0.0000000000
  9
$USRTIMER
 70
     1
  9
$ANGBASE
 50
0.0
  9
$ANGDIR
 70
     0
  9
$PDMODE
 70
     0
  9
$PDSIZE
 40
0.0
  9
$PLINEWID
 40
0.0
  9
$COORDS
 70
     1
  9
$SPLFRAME
 70
     0
  9
$SPLINETYPE
 70
     6
  9
$SPLINESEGS
 70
     8
  9
$ATTDIA
 70
     0
  9
$ATTREQ
 70
     1
  9
$HANDLING
 70
     1
  9
$HANDSEED
  5
FC
  9
$SURFTAB1
 70
     6
  9
$SURFTAB2
 70
     6
  9
$SURFTYPE
 70
     6
  9
$SURFU
 70
     6
  9
$SURFV
 70
     6
  9
$UCSNAME
  2

  9
$UCSORG
 10
0.0
 20
0.0
 30
0.0
  9
$UCSXDIR
 10
1.0
 20
0.0
 30
0.0
  9
$UCSYDIR
 10
0.0
 20
1.0
 30
0.0
  9
$PUCSNAME
  2

  9
$PUCSORG
 10
0.0
 20
0.0
 30
0.0
  9
$PUCSXDIR
 10
1.0
 20
0.0
 30
0.0
  9
$PUCSYDIR
 10
0.0
 20
1.0
 30
0.0
  9
$USERI1
 70
     0
  9
$USERI2
 70
     0
  9
$USERI3
 70
     0
  9
$USERI4
 70
     0
  9
$USERI5
 70
     0
  9
$USERR1
 40
0.0
  9
$USERR2
 40
0.0
  9
$USERR3
 40
0.0
  9
$USERR4
 40
0.0
  9
$USERR5
 40
0.0
  9
$WORLDVIEW
 70
     1
  9
$SHADEDGE
 70
     3
  9
$SHADEDIF
 70
    70
  9
$TILEMODE
 70
     1
  9
$MAXACTVP
 70
    48
  9
$PINSBASE
 10
0.0
 20
0.0
 30
0.0
  9
$PLIMCHECK
 70
     0
  9
$PEXTMIN
 10
1.000000000000000E+20
 20
1.000000000000000E+20
 30
1.000000000000000E+20
  9
$PEXTMAX
 10
-1.000000000000000E+20
 20
-1.000000000000000E+20
 30
-1.000000000000000E+20
  9
$PLIMMIN
 10
0.0
 20
0.0
  9
$PLIMMAX
 10
12.0
 20
9.0
  9
$UNITMODE
 70
     0
  9
$VISRETAIN
 70
     1
  9
$PLINEGEN
 70
     0
  9
$PSLTSCALE
 70
     1
  9
$TREEDEPTH
 70
  3020
  9
$PICKSTYLE
 70
     1
  9
$CMLSTYLE
  2
STANDARD
  9
$CMLJUST
 70
     0
  9
$CMLSCALE
 40
1.0
  9
$PROXYGRAPHICS
 70
     1
  9
$MEASUREMENT
 70
     0
  0
ENDSEC
  0
SECTION
  2
CLASSES
  0
CLASS
  1
DICTIONARYVAR
  2
AcDbDictionaryVar
  3
"AutoCAD"
 90
        0
280
     0
281
     0
  0
CLASS
  1
LWPOLYLINE
  2
AcDbPolyline
  3
"AutoCAD"
 90
        0
280
     0
281
     1
  0
ENDSEC
  0
SECTION
  2
TABLES
  0
TABLE
  2
VPORT
  5
8
100
AcDbSymbolTable
 70
     1
  0
VPORT
  5
11
100
AcDbSymbolTableRecord
100
AcDbViewportTableRecord
  2
*ACTIVE
 70
     0
 10
0.0
 20
0.0
 11
1.0
 21
1.0
 12
3.6
 22
4.5
 13
0.0
 23
0.0
 14
1.0
 24
1.0
 15
0.0
 25
0.0
 16
0.0
 26
0.0
 36
1.0
 17
0.0
 27
0.0
 37
0.0
 40
15.0
 41
0.8
 42
50.0
 43
0.0
 44
0.0
 50
0.0
 51
0.0
 71
     0
 72
   100
 73
     1
 74
     1
 75
     0
 76
     0
 77
     0
 78
     0
  0
ENDTAB
  0
TABLE
  2
LTYPE
  5
5
100
AcDbSymbolTable
 70
    40
  0
LTYPE
  5
12
100
AcDbSymbolTableRecord
100
AcDbLinetypeTableRecord
  2
BYBLOCK
 70
     0
  3

 72
    65
 73
     0
 40
0.0
  0
LTYPE
  5
13
100
AcDbSymbolTableRecord
100
AcDbLinetypeTableRecord
  2
BYLAYER
 70
     0
  3

 72
    65
 73
     0
 40
0.0
  0
LTYPE
  5
14
100
AcDbSymbolTableRecord
100
AcDbLinetypeTableRecord
  2
CONTINUOUS
 70
     0
  3
Solid line
 72
    65
 73
     0
 40
0.0
  0
LTYPE
  5
20
100
AcDbSymbolTableRecord
100
AcDbLinetypeTableRecord
  2
HIDDEN
 70
     0
  3
_ _ _ _ _ _ _ _ _ _ _ _ _ _ 
 72
    65
 73
     2
 40
9.524999999999998
 49
6.349999999999999
 74
     0
 49
-3.174999999999999
 74
     0
  0
LTYPE
  5
21
100
AcDbSymbolTableRecord
100
AcDbLinetypeTableRecord
  2
DASHED
 70
     0
  3
__ __ __ __ __ __ __ __ __ 
 72
    65
 73
     2
 40
19.04999999999999
 49
12.7
 74
     0
 49
-6.349999999999999
 74
     0
  0
LTYPE
  5
22
100
AcDbSymbolTableRecord
100
AcDbLinetypeTableRecord
  2
CENTER
 70
     0
  3
____ _ ____ _ ____ _ ____ _ 
 72
    65
 73
     4
 40
50.8
 49
31.75
 74
     0
 49
-6.349999999999999
 74
     0
 49
6.349999999999999
 74
     0
 49
-6.349999999999999
 74
     0
  0
LTYPE
  5
23
100
AcDbSymbolTableRecord
100
AcDbLinetypeTableRecord
  2
PHANTOM
 70
     0
  3
_____ _ _ _____ _ _ _____ _ _ 
 72
    65
 73
     6
 40
63.50000000000001
 49
31.75
 74
     0
 49
-6.349999999999999
 74
     0
 49
6.349999999999999
 74
     0
 49
-6.349999999999999
 74
     0
 49
6.349999999999999
 74
     0
 49
-6.349999999999999
 74
     0
  0
LTYPE
  5
24
100
AcDbSymbolTableRecord
100
AcDbLinetypeTableRecord
  2
DOT
 70
     0
  3
...........................
 72
    65
 73
     2
 40
6.349999999999999
 49
0.0
 74
     0
 49
-6.349999999999999
 74
     0
  0
LTYPE
  5
25
100
AcDbSymbolTableRecord
100
AcDbLinetypeTableRecord
  2
DASHDOT
 70
     0
  3
__ . __ . __ . __ . __ . __ . 
 72
    65
 73
     4
 40
25.4
 49
12.7
 74
     0
 49
-6.349999999999999
 74
     0
 49
0.0
 74
     0
 49
-6.349999999999999
 74
     0
  0
LTYPE
  5
26
100
AcDbSymbolTableRecord
100
AcDbLinetypeTableRecord
  2
DIVIDE
 70
     0
  3
__ . . __ . . __ . . __ . . 
 72
    65
 73
     6
 40
31.75
 49
12.7
 74
     0
 49
-6.349999999999999
 74
     0
 49
0.0
 74
     0
 49
-6.349999999999999
 74
     0
 49
0.0
 74
     0
 49
-6.349999999999999
 74
     0
  0
LTYPE
  5
27
100
AcDbSymbolTableRecord
100
AcDbLinetypeTableRecord
  2
BORDER
 70
     0
  3
__ __ . __ __ . __ __ . __ __ .
 72
    65
 73
     6
 40
44.44999999999999
 49
12.7
 74
     0
 49
-6.349999999999999
 74
     0
 49
12.7
 74
     0
 49
-6.349999999999999
 74
     0
 49
0.0
 74
     0
 49
-6.349999999999999
 74
     0
  0
LTYPE
  5
28
100
AcDbSymbolTableRecord
100
AcDbLinetypeTableRecord
  2
BORDER2
 70
     0
  3
Border (.5x) __.__.__.__.__.__.
 72
    65
 73
     6
 40
0.875
 49
0.25
 74
     0
 49
-0.125
 74
     0
 49
0.25
 74
     0
 49
-0.125
 74
     0
 49
0.0
 74
     0
 49
-0.125
 74
     0
  0
LTYPE
  5
29
100
AcDbSymbolTableRecord
100
AcDbLinetypeTableRecord
  2
BORDERX2
 70
     0
  3
Border (2x) ____  ____  .  ____
 72
    65
 73
     6
 40
3.5
 49
1.0
 74
     0
 49
-0.5
 74
     0
 49
1.0
 74
     0
 49
-0.5
 74
     0
 49
0.0
 74
     0
 49
-0.5
 74
     0
  0
LTYPE
  5
2A
100
AcDbSymbolTableRecord
100
AcDbLinetypeTableRecord
  2
CENTER2
 70
     0
  3
Center (.5x) ___ _ ___ _ ___ _ 
 72
    65
 73
     4
 40
1.125
 49
0.75
 74
     0
 49
-0.125
 74
     0
 49
0.125
 74
     0
 49
-0.125
 74
     0
  0
LTYPE
  5
2B
100
AcDbSymbolTableRecord
100
AcDbLinetypeTableRecord
  2
CENTERX2
 70
     0
  3
Center (2x) ________  __  _____
 72
    65
 73
     4
 40
4.0
 49
2.5
 74
     0
 49
-0.5
 74
     0
 49
0.5
 74
     0
 49
-0.5
 74
     0
  0
LTYPE
  5
2C
100
AcDbSymbolTableRecord
100
AcDbLinetypeTableRecord
  2
DASHDOT2
 70
     0
  3
Dash dot (.5x) _._._._._._._._.
 72
    65
 73
     4
 40
0.5
 49
0.25
 74
     0
 49
-0.125
 74
     0
 49
0.0
 74
     0
 49
-0.125
 74
     0
  0
LTYPE
  5
2D
100
AcDbSymbolTableRecord
100
AcDbLinetypeTableRecord
  2
DASHDOTX2
 70
     0
  3
Dash dot (2x) ____  .  ____  . 
 72
    65
 73
     4
 40
2.0
 49
1.0
 74
     0
 49
-0.5
 74
     0
 49
0.0
 74
     0
 49
-0.5
 74
     0
  0
LTYPE
  5
2E
100
AcDbSymbolTableRecord
100
AcDbLinetypeTableRecord
  2
DASHED2
 70
     0
  3
Dashed (.5x) _ _ _ _ _ _ _ _ _ 
 72
    65
 73
     2
 40
0.375
 49
0.25
 74
     0
 49
-0.125
 74
     0
  0
LTYPE
  5
2F
100
AcDbSymbolTableRecord
100
AcDbLinetypeTableRecord
  2
DASHEDX2
 70
     0
  3
Dashed (2x) ____  ____  ____  _
 72
    65
 73
     2
 40
1.5
 49
1.0
 74
     0
 49
-0.5
 74
     0
  0
LTYPE
  5
30
100
AcDbSymbolTableRecord
100
AcDbLinetypeTableRecord
  2
DIVIDE2
 70
     0
  3
Divide (.5x) __..__..__..__..__
 72
    65
 73
     6
 40
0.625
 49
0.25
 74
     0
 49
-0.125
 74
     0
 49
0.0
 74
     0
 49
-0.125
 74
     0
 49
0.0
 74
     0
 49
-0.125
 74
     0
  0
LTYPE
  5
31
100
AcDbSymbolTableRecord
100
AcDbLinetypeTableRecord
  2
DIVIDEX2
 70
     0
  3
Divide (2x) ________  .  .  ___
 72
    65
 73
     6
 40
2.5
 49
1.0
 74
     0
 49
-0.5
 74
     0
 49
0.0
 74
     0
 49
-0.5
 74
     0
 49
0.0
 74
     0
 49
-0.5
 74
     0
  0
LTYPE
  5
32
100
AcDbSymbolTableRecord
100
AcDbLinetypeTableRecord
  2
DOT2
 70
     0
  3
Dot (.5x) .....................
 72
    65
 73
     2
 40
0.125
 49
0.0
 74
     0
 49
-0.125
 74
     0
  0
LTYPE
  5
33
100
AcDbSymbolTableRecord
100
AcDbLinetypeTableRecord
  2
DOTX2
 70
     0
  3
Dot (2x) .  .  .  .  .  .  .  .
 72
    65
 73
     2
 40
0.5
 49
0.0
 74
     0
 49
-0.5
 74
     0
  0
LTYPE
  5
34
100
AcDbSymbolTableRecord
100
AcDbLinetypeTableRecord
  2
HIDDEN2
 70
     0
  3
Hidden (.5x) _ _ _ _ _ _ _ _ _ 
 72
    65
 73
     2
 40
0.1875
 49
0.125
 74
     0
 49
-0.0625
 74
     0
  0
LTYPE
  5
35
100
AcDbSymbolTableRecord
100
AcDbLinetypeTableRecord
  2
HIDDENX2
 70
     0
  3
Hidden (2x) ____ ____ ____ ____
 72
    65
 73
     2
 40
0.75
 49
0.5
 74
     0
 49
-0.25
 74
     0
  0
LTYPE
  5
36
100
AcDbSymbolTableRecord
100
AcDbLinetypeTableRecord
  2
PHANTOM2
 70
     0
  3
Phantom (.5x) ___ _ _ ___ _ _ _
 72
    65
 73
     6
 40
1.25
 49
0.625
 74
     0
 49
-0.125
 74
     0
 49
0.125
 74
     0
 49
-0.125
 74
     0
 49
0.125
 74
     0
 49
-0.125
 74
     0
  0
LTYPE
  5
37
100
AcDbSymbolTableRecord
100
AcDbLinetypeTableRecord
  2
PHANTOMX2
 70
     0
  3
Phantom (2x) ____________    __
 72
    65
 73
     6
 40
5.0
 49
2.5
 74
     0
 49
-0.5
 74
     0
 49
0.5
 74
     0
 49
-0.5
 74
     0
 49
0.5
 74
     0
 49
-0.5
 74
     0
  0
LTYPE
  5
38
100
AcDbSymbolTableRecord
100
AcDbLinetypeTableRecord
  2
DOTS
 70
     0
  3
Dots - - - - - - - - - - - - - 
 72
    65
 73
     2
 40
0.1
 49
0.05
 74
     0
 49
-0.05
 74
     0
  0
LTYPE
  5
39
100
AcDbSymbolTableRecord
100
AcDbLinetypeTableRecord
  2
ACAD_ISO02W100
 70
     0
  3
__ __ __ __ __ __ __ __ __ __ _
 72
    65
 73
     2
 40
15.0
 49
12.0
 74
     0
 49
-3.0
 74
     0
  0
LTYPE
  5
3A
100
AcDbSymbolTableRecord
100
AcDbLinetypeTableRecord
  2
ACAD_ISO03W100
 70
     0
  3
__    __    __    __    __    _
 72
    65
 73
     2
 40
30.0
 49
12.0
 74
     0
 49
-18.0
 74
     0
  0
LTYPE
  5
3B
100
AcDbSymbolTableRecord
100
AcDbLinetypeTableRecord
  2
ACAD_ISO04W100
 70
     0
  3
____ . ____ . ____ . ____ . ___
 72
    65
 73
     4
 40
30.5
 49
24.0
 74
     0
 49
-3.0
 74
     0
 49
0.5
 74
     0
 49
-3.0
 74
     0
  0
LTYPE
  5
3C
100
AcDbSymbolTableRecord
100
AcDbLinetypeTableRecord
  2
ACAD_ISO05W100
 70
     0
  3
____ .. ____ .. ____ .. ____ ..
 72
    65
 73
     6
 40
34.0
 49
24.0
 74
     0
 49
-3.0
 74
     0
 49
0.5
 74
     0
 49
-3.0
 74
     0
 49
0.5
 74
     0
 49
-3.0
 74
     0
  0
LTYPE
  5
3D
100
AcDbSymbolTableRecord
100
AcDbLinetypeTableRecord
  2
ACAD_ISO06W100
 70
     0
  3
____ ... ____ ... ____ ... ____
 72
    65
 73
     6
 40
34.0
 49
24.0
 74
     0
 49
-3.0
 74
     0
 49
0.5
 74
     0
 49
-3.0
 74
     0
 49
0.5
 74
     0
 49
-3.0
 74
     0
  0
LTYPE
  5
3E
100
AcDbSymbolTableRecord
100
AcDbLinetypeTableRecord
  2
ACAD_ISO07W100
 70
     0
  3
. . . . . . . . . . . . . . . .
 72
    65
 73
     2
 40
3.5
 49
0.5
 74
     0
 49
-3.0
 74
     0
  0
LTYPE
  5
3F
100
AcDbSymbolTableRecord
100
AcDbLinetypeTableRecord
  2
ACAD_ISO08W100
 70
     0
  3
____ __ ____ __ ____ __ ____ __
 72
    65
 73
     4
 40
36.0
 49
24.0
 74
     0
 49
-3.0
 74
     0
 49
6.0
 74
     0
 49
-3.0
 74
     0
  0
LTYPE
  5
40
100
AcDbSymbolTableRecord
100
AcDbLinetypeTableRecord
  2
ACAD_ISO09W100
 70
     0
  3
____ __ __ ____ __ __ ____ __ _
 72
    65
 73
     6
 40
45.0
 49
24.0
 74
     0
 49
-3.0
 74
     0
 49
6.0
 74
     0
 49
-3.0
 74
     0
 49
6.0
 74
     0
 49
-3.0
 74
     0
  0
LTYPE
  5
41
100
AcDbSymbolTableRecord
100
AcDbLinetypeTableRecord
  2
ACAD_ISO10W100
 70
     0
  3
__ . __ . __ . __ . __ . __ . _
 72
    65
 73
     4
 40
18.5
 49
12.0
 74
     0
 49
-3.0
 74
     0
 49
0.5
 74
     0
 49
-3.0
 74
     0
  0
LTYPE
  5
42
100
AcDbSymbolTableRecord
100
AcDbLinetypeTableRecord
  2
ACAD_ISO11W100
 70
     0
  3
__ __ . __ __ . __ __ . __ __ .
 72
    65
 73
     6
 40
33.5
 49
12.0
 74
     0
 49
-3.0
 74
     0
 49
12.0
 74
     0
 49
-3.0
 74
     0
 49
0.5
 74
     0
 49
-3.0
 74
     0
  0
LTYPE
  5
43
100
AcDbSymbolTableRecord
100
AcDbLinetypeTableRecord
  2
ACAD_ISO12W100
 70
     0
  3
__ . . __ . . __ . . __ . . __ 
 72
    65
 73
     6
 40
22.0
 49
12.0
 74
     0
 49
-3.0
 74
     0
 49
0.5
 74
     0
 49
-3.0
 74
     0
 49
0.5
 74
     0
 49
-3.0
 74
     0
  0
LTYPE
  5
44
100
AcDbSymbolTableRecord
100
AcDbLinetypeTableRecord
  2
ACAD_ISO13W100
 70
     0
  3
__ __ . . __ __ . . __ __ . . _
 72
    65
 73
     6
 40
33.5
 49
12.0
 74
     0
 49
-3.0
 74
     0
 49
12.0
 74
     0
 49
-3.0
 74
     0
 49
0.5
 74
     0
 49
-3.0
 74
     0
  0
LTYPE
  5
45
100
AcDbSymbolTableRecord
100
AcDbLinetypeTableRecord
  2
ACAD_ISO14W100
 70
     0
  3
__ . . . __ . . . __ . . . __ .
 72
    65
 73
     6
 40
22.0
 49
12.0
 74
     0
 49
-3.0
 74
     0
 49
0.5
 74
     0
 49
-3.0
 74
     0
 49
0.5
 74
     0
 49
-3.0
 74
     0
  0
LTYPE
  5
46
100
AcDbSymbolTableRecord
100
AcDbLinetypeTableRecord
  2
ACAD_ISO15W100
 70
     0
  3
__ __ . . . __ __ . . . __ __ .
 72
    65
 73
     6
 40
33.5
 49
12.0
 74
     0
 49
-3.0
 74
     0
 49
12.0
 74
     0
 49
-3.0
 74
     0
 49
0.5
 74
     0
 49
-3.0
 74
     0
  0
ENDTAB
  0
TABLE
  2
LAYER
  5
2
100
AcDbSymbolTable
 70
     6
  0
LAYER
  5
E
100
AcDbSymbolTableRecord
100
AcDbLayerTableRecord
  2
0
 70
     0
 62
     7
  6
CONTINUOUS
  0
LAYER
  5
47
100
AcDbSymbolTableRecord
100
AcDbLayerTableRecord
  2
ARMOUR
 70
     4
 62
     7
  6
CONTINUOUS
  0
LAYER
  5
48
100
AcDbSymbolTableRecord
100
AcDbLayerTableRecord
  2
AXES
 70
     0
 62
     1
  6
CONTINUOUS
  0
LAYER
  5
49
100
AcDbSymbolTableRecord
100
AcDbLayerTableRecord
  2
COMMENTS
 70
     0
 62
    94
  6
CONTINUOUS
  0
LAYER
  5
4A
100
AcDbSymbolTableRecord
100
AcDbLayerTableRecord
  2
FRAME
 70
     4
 62
     7
  6
CONTINUOUS
  0
LAYER
  5
4B
100
AcDbSymbolTableRecord
100
AcDbLayerTableRecord
  2
MUDFLAP
 70
     0
 62
     7
  6
CONTINUOUS
  0
ENDTAB
  0
TABLE
  2
STYLE
  5
3
100
AcDbSymbolTable
 70
     5
  0
STYLE
  5
F
100
AcDbSymbolTableRecord
100
AcDbTextStyleTableRecord
  2
STANDARD
 70
     0
 40
0.0
 41
1.0
 50
0.0
 71
     0
 42
144.3069277199129
  3
txt
  4

  0
STYLE
  5
4C
100
AcDbSymbolTableRecord
100
AcDbTextStyleTableRecord
  2
ITALIC
 70
     0
 40
0.0
 41
1.0
 50
0.0
 71
     0
 42
144.3069277199129
  3
ITALIC
  4

  0
STYLE
  5
4D
100
AcDbSymbolTableRecord
100
AcDbTextStyleTableRecord
  2
SIMPLEX
 70
     0
 40
0.0
 41
1.0
 50
0.0
 71
     0
 42
144.3069277199129
  3
SIMPLEX
  4

  0
STYLE
  5
4E
100
AcDbSymbolTableRecord
100
AcDbTextStyleTableRecord
  2
COMPLEX
 70
     0
 40
0.0
 41
1.0
 50
0.0
 71
     0
 42
144.3069277199129
  3
COMPLEX
  4

  0
STYLE
  5
D8
100
AcDbSymbolTableRecord
100
AcDbTextStyleTableRecord
  2
ARIAL
 70
     0
 40
0.0
 41
1.0
 50
0.0
 71
     0
 42
144.3069277199129
  3
ARIAL.TTF
  4

1001
ACAD
1000
Arial
1071
        0
  0
ENDTAB
  0
TABLE
  2
VIEW
  5
6
100
AcDbSymbolTable
 70
     0
  0
ENDTAB
  0
TABLE
  2
UCS
  5
7
100
AcDbSymbolTable
 70
     0
  0
ENDTAB
  0
TABLE
  2
APPID
  5
9
100
AcDbSymbolTable
 70
     1
  0
APPID
  5
10
100
AcDbSymbolTableRecord
100
AcDbRegAppTableRecord
  2
ACAD
 70
     0
  0
ENDTAB
  0
TABLE
  2
DIMSTYLE
  5
A
100
AcDbSymbolTable
 70
     1
  0
DIMSTYLE
105
1D
100
AcDbSymbolTableRecord
100
AcDbDimStyleTableRecord
  2
STANDARD
 70
     0
  3

  4

  5

  6

  7

 40
1.0
 41
0.18
 42
0.0625
 43
0.38
 44
0.18
 45
0.0
 46
0.0
 47
0.0
 48
0.0
140
0.18
141
0.09
142
0.0
143
25.4
144
1.0
145
0.0
146
1.0
147
0.09
 71
     0
 72
     0
 73
     1
 74
     1
 75
     0
 76
     0
 77
     0
 78
     0
170
     0
171
     2
172
     0
173
     0
174
     0
175
     0
176
     0
177
     0
178
     0
270
     2
271
     4
272
     4
273
     2
274
     2
340
F
275
     0
280
     0
281
     0
282
     0
283
     1
284
     0
285
     0
286
     0
287
     3
288
     0
  0
ENDTAB
  0
TABLE
  2
BLOCK_RECORD
  5
1
100
AcDbSymbolTable
 70
     1
  0
BLOCK_RECORD
  5
18
100
AcDbSymbolTableRecord
100
AcDbBlockTableRecord
  2
*MODEL_SPACE
  0
BLOCK_RECORD
  5
15
100
AcDbSymbolTableRecord
100
AcDbBlockTableRecord
  2
*PAPER_SPACE
  0
BLOCK_RECORD
  5
E0
100
AcDbSymbolTableRecord
100
AcDbBlockTableRecord
  2
HATCH54976
  0
ENDTAB
  0
ENDSEC
  0
SECTION
  2
BLOCKS
  0
BLOCK
  5
19
100
AcDbEntity
  8
0
100
AcDbBlockBegin
  2
*MODEL_SPACE
 70
     0
 10
0.0
 20
0.0
 30
0.0
  3
*MODEL_SPACE
  1

  0
ENDBLK
  5
1A
100
AcDbEntity
  8
0
100
AcDbBlockEnd
  0
BLOCK
  5
16
100
AcDbEntity
 67
     1
  8
0
100
AcDbBlockBegin
  2
*PAPER_SPACE
 70
     0
 10
0.0
 20
0.0
 30
0.0
  3
*PAPER_SPACE
  1

  0
ENDBLK
  5
17
100
AcDbEntity
 67
     1
  8
0
100
AcDbBlockEnd
  0
BLOCK
  5
EC
100
AcDbEntity
  8
0
100
AcDbBlockBegin
  2
HATCH54976
 70
     0
 10
0.0
 20
0.0
 30
0.0
  3
HATCH54976
  1

  0
LINE
  5
E1
100
AcDbEntity
  8
MUDFLAP
  6
CONTINUOUS
 62
     0
100
AcDbLine
 10
-8.420537690836658
 20
-126.0730723511279
 30
0.0
 11
57.21612921775561
 21
-60.43640544253277
 31
0.0
  0
LINE
  5
E2
100
AcDbEntity
  8
MUDFLAP
  6
CONTINUOUS
 62
     0
100
AcDbLine
 10
-62.81867705301062
 20
-119.246967415534
 30
0.0
 11
3.413005440931328
 21
-53.01528492159214
 31
0.0
  0
LINE
  5
E3
100
AcDbEntity
  8
MUDFLAP
  6
CONTINUOUS
 62
     0
100
AcDbLine
 10
-93.08487840230897
 20
-88.28892446706609
 30
0.0
 11
-18.61601021104515
 21
-13.82005627580082
 31
0.0
  0
LINE
  5
E4
100
AcDbEntity
  8
MUDFLAP
  6
CONTINUOUS
 62
     0
100
AcDbLine
 10
-93.08487840230897
 20
-27.0646801692954
 30
0.0
 11
-17.93574082995851
 21
48.08445740305362
 31
0.0
  0
LINE
  5
E5
100
AcDbEntity
  8
MUDFLAP
  6
CONTINUOUS
 62
     0
100
AcDbLine
 10
-93.08487840230897
 20
34.15956412847095
 30
0.0
 11
-17.25547144887475
 21
109.9889710819055
 31
0.0
  0
LINE
  5
E6
100
AcDbEntity
  8
MUDFLAP
  6
CONTINUOUS
 62
     0
100
AcDbLine
 10
27.84488855061265
 20
-130.6238089748578
 30
0.0
 11
93.08487840230897
 21
-65.38381912316154
 31
0.0
  0
LINE
  5
E7
100
AcDbEntity
  8
MUDFLAP
  6
CONTINUOUS
 62
     0
100
AcDbLine
 10
-26.55325081156131
 20
-123.7977040392625
 30
0.0
 11
39.2817546254818
 21
-57.96269860221946
 31
0.0
  0
LINE
  5
E8
100
AcDbEntity
  8
MUDFLAP
  6
CONTINUOUS
 62
     0
100
AcDbLine
 10
-80.95139017373528
 20
-116.9715991036687
 30
0.0
 11
-14.52136915134246
 21
-50.54157808127738
 31
0.0
  0
LINE
  5
E9
100
AcDbEntity
  8
MUDFLAP
  6
CONTINUOUS
 62
     0
100
AcDbLine
 10
-93.08487840230897
 20
-67.8808430344761
 30
0.0
 11
-18.3892537506839
 21
6.814781617150418
 31
0.0
  0
LINE
  5
EA
100
AcDbEntity
  8
MUDFLAP
  6
CONTINUOUS
 62
     0
100
AcDbLine
 10
-93.08487840230897
 20
-6.656598736706854
 30
0.0
 11
-17.70898436959726
 21
68.71929529600485
 31
0.0
  0
LINE
  5
EB
100
AcDbEntity
  8
MUDFLAP
  6
CONTINUOUS
 62
     0
100
AcDbLine
 10
-93.08487840230897
 20
54.56764556106094
 30
0.0
 11
-17.02871498851061
 21
130.6238089748582
 31
0.0
  0
ENDBLK
  5
ED
100
AcDbEntity
  8
0
100
AcDbBlockEnd
  0
ENDSEC
  0
SECTION
  2
ENTITIES
  0
LINE
  5
4F
100
AcDbEntity
  8
FRAME
  6
CONTINUOUS
100
AcDbLine
 10
15730.00535502998
 20
-3440.475381352458
 30
0.0
 11
15730.00535502999
 21
-3235.47538135246
 31
0.0
  0
LINE
  5
50
100
AcDbEntity
  8
FRAME
  6
CONTINUOUS
100
AcDbLine
 10
15730.00535502998
 20
-3440.475381352458
 30
0.0
 11
16325.00535502995
 21
-3440.475381352457
 31
0.0
  0
LINE
  5
51
100
AcDbEntity
  8
FRAME
  6
CONTINUOUS
100
AcDbLine
 10
15730.00535502998
 20
-3235.475381352459
 30
0.0
 11
16325.00535502996
 21
-3235.475381352466
 31
0.0
  0
LINE
  5
52
100
AcDbEntity
  8
FRAME
  6
CONTINUOUS
100
AcDbLine
 10
16325.00535502998
 20
-3440.475381352458
 30
0.0
 11
16325.00535502998
 21
-3235.47538135246
 31
0.0
  0
LINE
  5
53
100
AcDbEntity
  8
FRAME
  6
CONTINUOUS
100
AcDbLine
 10
16300.00535503002
 20
-3400.475381352441
 30
0.0
 11
16300.00535502998
 21
-3275.475381352431
 31
0.0
  0
LINE
  5
54
100
AcDbEntity
  8
FRAME
  6
CONTINUOUS
100
AcDbLine
 10
16040.00535502998
 20
-3400.475381352476
 30
0.0
 11
16040.00535502996
 21
-3275.475381352487
 31
0.0
  0
LINE
  5
55
100
AcDbEntity
  8
FRAME
  6
CONTINUOUS
100
AcDbLine
 10
16015.00535502994
 20
-3400.475381352498
 30
0.0
 11
16015.00535502997
 21
-3275.47538135244
 31
0.0
  0
LINE
  5
56
100
AcDbEntity
  8
FRAME
  6
CONTINUOUS
100
AcDbLine
 10
15755.00535502995
 20
-3400.475381352431
 30
0.0
 11
15755.00535502997
 21
-3275.475381352444
 31
0.0
  0
LINE
  5
57
100
AcDbEntity
  8
ARMOUR
  6
CONTINUOUS
100
AcDbLine
 10
16745.76309786779
 20
-3445.47538135218
 30
0.0
 11
16745.76309786779
 21
-3154.090397355061
 31
0.0
  0
LINE
  5
58
100
AcDbEntity
  8
FRAME
  6
CONTINUOUS
100
AcDbLine
 10
16725.76309786781
 20
-3440.47538135217
 30
0.0
 11
16725.76309786779
 21
-3235.475381352183
 31
0.0
  0
LINE
  5
59
100
AcDbEntity
  8
FRAME
  6
CONTINUOUS
100
AcDbLine
 10
16725.76309786781
 20
-3235.475381352473
 30
0.0
 11
16745.76309786779
 21
-3235.47538135246
 31
0.0
  0
LINE
  5
5A
100
AcDbEntity
  8
FRAME
  6
CONTINUOUS
100
AcDbLine
 10
16725.76309786781
 20
-3440.475381352445
 30
0.0
 11
16745.76309786779
 21
-3440.475381352456
 31
0.0
  0
LINE
  5
5B
100
AcDbEntity
  8
FRAME
  6
CONTINUOUS
100
AcDbLine
 10
15775.00535502995
 20
-3420.475381352456
 30
0.0
 11
15995.00535502995
 21
-3420.475381352474
 31
0.0
  0
LINE
  5
5C
100
AcDbEntity
  8
FRAME
  6
CONTINUOUS
100
AcDbLine
 10
15775.00535502998
 20
-3255.475381352459
 30
0.0
 11
15995.00535502998
 21
-3255.475381352432
 31
0.0
  0
ARC
  5
5D
100
AcDbEntity
  8
FRAME
  6
CONTINUOUS
100
AcDbCircle
 10
15775.00535502998
 20
-3275.475381352448
 30
0.0
 40
20.0
100
AcDbArc
 50
90.0000000000001
 51
179.9999999999875
  0
ARC
  5
5E
100
AcDbEntity
  8
FRAME
  6
CONTINUOUS
100
AcDbCircle
 10
15995.00535502998
 20
-3275.475381352435
 30
0.0
 40
20.0
100
AcDbArc
 50
0.0
 51
90.00000000000005
  0
ARC
  5
5F
100
AcDbEntity
  8
FRAME
  6
CONTINUOUS
100
AcDbCircle
 10
15995.00535502996
 20
-3400.475381352494
 30
0.0
 40
20.0
100
AcDbArc
 50
270.0
 51
0.0000000000000799
  0
ARC
  5
60
100
AcDbEntity
  8
FRAME
  6
CONTINUOUS
100
AcDbCircle
 10
15775.00535502995
 20
-3400.475381352435
 30
0.0
 40
20.0
100
AcDbArc
 50
179.9999999999875
 51
270.0
  0
ARC
  5
61
100
AcDbEntity
  8
FRAME
  6
CONTINUOUS
100
AcDbCircle
 10
16060.00535503002
 20
-3400.475381352473
 30
0.0
 40
20.0
100
AcDbArc
 50
180.000000000004
 51
270.0
  0
ARC
  5
62
100
AcDbEntity
  8
FRAME
  6
CONTINUOUS
100
AcDbCircle
 10
16060.00535502999
 20
-3275.475381352486
 30
0.0
 40
20.0
100
AcDbArc
 50
90.00000000000005
 51
180.0000000000061
  0
ARC
  5
63
100
AcDbEntity
  8
FRAME
  6
CONTINUOUS
100
AcDbCircle
 10
16280.00535502995
 20
-3275.475381352439
 30
0.0
 40
20.0
100
AcDbArc
 50
0.0000000000248338
 51
90.00000000000005
  0
ARC
  5
64
100
AcDbEntity
  8
FRAME
  6
CONTINUOUS
100
AcDbCircle
 10
16280.00535503008
 20
-3400.475381352448
 30
0.0
 40
20.0
100
AcDbArc
 50
270.0
 51
0.0000000000227818
  0
LINE
  5
65
100
AcDbEntity
  8
ARMOUR
  6
CONTINUOUS
100
AcDbLine
 10
16332.00535502983
 20
-3445.475381352457
 30
0.0
 11
16332.00535502983
 21
-3121.255791030941
 31
0.0
  0
LINE
  5
66
100
AcDbEntity
  8
ARMOUR
  6
CONTINUOUS
100
AcDbLine
 10
15722.00535502985
 20
-3646.950586820203
 30
0.0
 11
15722.00535502984
 21
-3445.47538135246
 31
0.0
  0
LINE
  5
67
100
AcDbEntity
  8
ARMOUR
  6
CONTINUOUS
100
AcDbLine
 10
15722.00535502984
 20
-3445.47538135246
 30
0.0
 11
16332.00535502983
 21
-3445.47538135246
 31
0.0
  0
CIRCLE
  5
68
100
AcDbEntity
  8
FRAME
  6
CONTINUOUS
100
AcDbCircle
 10
16125.00535502997
 20
-3390.475381352454
 30
0.0
 40
2.499999999999999
  0
CIRCLE
  5
69
100
AcDbEntity
  8
FRAME
  6
CONTINUOUS
100
AcDbCircle
 10
16215.00535502999
 20
-3390.475381352453
 30
0.0
 40
2.499999999999999
  0
LINE
  5
6A
100
AcDbEntity
  8
FRAME
  6
CONTINUOUS
100
AcDbLine
 10
16117.00535502996
 20
-3390.475381352454
 30
0.0
 11
16117.00535502996
 21
-3400.475381352479
 31
0.0
  0
LINE
  5
6B
100
AcDbEntity
  8
FRAME
  6
CONTINUOUS
100
AcDbLine
 10
16223.00535502999
 20
-3390.475381352453
 30
0.0
 11
16223.00535502999
 21
-3400.475381352388
 31
0.0
  0
ARC
  5
6C
100
AcDbEntity
  8
FRAME
  6
CONTINUOUS
100
AcDbCircle
 10
16097.00535503002
 20
-3400.475381352479
 30
0.0
 40
20.0
100
AcDbArc
 50
270.0000000000008
 51
0.0000000000008793
  0
ARC
  5
6D
100
AcDbEntity
  8
FRAME
  6
CONTINUOUS
100
AcDbCircle
 10
16243.00535502971
 20
-3400.475381352388
 30
0.0
 40
20.0
100
AcDbArc
 50
180.0000000000007
 51
270.0000000000008
  0
LINE
  5
6E
100
AcDbEntity
  8
FRAME
  6
CONTINUOUS
100
AcDbLine
 10
16160.00535502999
 20
-3410.475381352509
 30
0.0
 11
16160.00535502999
 21
-3390.475381352429
 31
0.0
  0
LINE
  5
6F
100
AcDbEntity
  8
FRAME
  6
CONTINUOUS
100
AcDbLine
 10
16180.00535502999
 20
-3410.475381352507
 30
0.0
 11
16180.00535502999
 21
-3390.475381352429
 31
0.0
  0
LINE
  5
70
100
AcDbEntity
  8
FRAME
  6
CONTINUOUS
100
AcDbLine
 10
16200.038725483
 20
-3390.475381352569
 30
0.0
 11
16180.00535503024
 21
-3390.475381352727
 31
0.0
  0
LINE
  5
71
100
AcDbEntity
  8
FRAME
  6
CONTINUOUS
100
AcDbLine
 10
16160.00535503015
 20
-3390.475381352441
 30
0.0
 11
16139.97198457706
 21
-3390.475381352448
 31
0.0
  0
ARC
  5
72
100
AcDbEntity
  8
FRAME
  6
CONTINUOUS
100
AcDbCircle
 10
16215.00535502999
 20
-3390.475381352453
 30
0.0
 40
7.999999999999999
100
AcDbArc
 50
0.0000000000008653
 51
146.2510114039478
  0
ARC
  5
73
100
AcDbEntity
  8
FRAME
  6
CONTINUOUS
100
AcDbCircle
 10
16125.00535502997
 20
-3390.475381352454
 30
0.0
 40
7.999999999999999
100
AcDbArc
 50
33.74898859590903
 51
180.0000000000008
  0
ARC
  5
74
100
AcDbEntity
  8
FRAME
  6
CONTINUOUS
100
AcDbCircle
 10
16139.97198457706
 20
-3380.475381352447
 30
0.0
 40
9.999999999999998
100
AcDbArc
 50
213.7489885959098
 51
270.0000000000007
  0
ARC
  5
75
100
AcDbEntity
  8
FRAME
  6
CONTINUOUS
100
AcDbCircle
 10
16200.03872548292
 20
-3380.47538135241
 30
0.0
 40
9.999999999999998
100
AcDbArc
 50
270.0000000000008
 51
326.2510114039465
  0
ARC
  5
76
100
AcDbEntity
  8
FRAME
  6
CONTINUOUS
100
AcDbCircle
 10
16170.00535502999
 20
-3410.475381352509
 30
0.0
 40
9.999999999999998
100
AcDbArc
 50
180.0000000000008
 51
0.0000000000008793
  0
LINE
  5
77
100
AcDbEntity
  8
FRAME
  6
CONTINUOUS
100
AcDbLine
 10
16060.00535503002
 20
-3420.475381352477
 30
0.0
 11
16097.00535503003
 21
-3420.475381352474
 31
0.0
  0
LINE
  5
78
100
AcDbEntity
  8
FRAME
  6
CONTINUOUS
100
AcDbLine
 10
16243.00535502971
 20
-3420.475381352388
 30
0.0
 11
16280.00535503008
 21
-3420.475381352388
 31
0.0
  0
CIRCLE
  5
79
100
AcDbEntity
  8
FRAME
  6
CONTINUOUS
100
AcDbCircle
 10
16125.00535502994
 20
-3275.475381352407
 30
0.0
 40
2.499999999999999
  0
CIRCLE
  5
7A
100
AcDbEntity
  8
FRAME
  6
CONTINUOUS
100
AcDbCircle
 10
16215.00535502991
 20
-3275.475381352405
 30
0.0
 40
2.499999999999999
  0
LINE
  5
7B
100
AcDbEntity
  8
FRAME
  6
CONTINUOUS
100
AcDbLine
 10
16125.00535502994
 20
-3283.475381352406
 30
0.0
 11
16215.00535502991
 21
-3283.475381352406
 31
0.0
  0
LINE
  5
7C
100
AcDbEntity
  8
FRAME
  6
CONTINUOUS
100
AcDbLine
 10
16223.00535502991
 20
-3275.475381352405
 30
0.0
 11
16223.00535502991
 21
-3265.475381352409
 31
0.0
  0
LINE
  5
7D
100
AcDbEntity
  8
FRAME
  6
CONTINUOUS
100
AcDbLine
 10
16117.00535502994
 20
-3275.475381352407
 30
0.0
 11
16117.00535502994
 21
-3265.475381352377
 31
0.0
  0
ARC
  5
7E
100
AcDbEntity
  8
FRAME
  6
CONTINUOUS
100
AcDbCircle
 10
16107.00535503006
 20
-3265.475381352377
 30
0.0
 40
9.999999999999998
100
AcDbArc
 50
0.0000000000008653
 51
90.00000000000081
  0
ARC
  5
7F
100
AcDbEntity
  8
FRAME
  6
CONTINUOUS
100
AcDbCircle
 10
16233.00535503017
 20
-3265.475381352409
 30
0.0
 40
9.999999999999998
100
AcDbArc
 50
90.00000000000079
 51
180.0000000000008
  0
ARC
  5
80
100
AcDbEntity
  8
FRAME
  6
CONTINUOUS
100
AcDbCircle
 10
16125.00535502994
 20
-3275.475381352407
 30
0.0
 40
7.999999999999999
100
AcDbArc
 50
180.0000000000008
 51
270.0000000000008
  0
ARC
  5
81
100
AcDbEntity
  8
FRAME
  6
CONTINUOUS
100
AcDbCircle
 10
16215.00535502991
 20
-3275.475381352405
 30
0.0
 40
7.999999999999999
100
AcDbArc
 50
270.0000000000008
 51
0.0000000000008793
  0
LINE
  5
82
100
AcDbEntity
  8
FRAME
  6
CONTINUOUS
100
AcDbLine
 10
16060.00535502999
 20
-3255.475381352469
 30
0.0
 11
16107.00535503006
 21
-3255.475381352463
 31
0.0
  0
LINE
  5
83
100
AcDbEntity
  8
FRAME
  6
CONTINUOUS
100
AcDbLine
 10
16233.00535503017
 20
-3255.47538135245
 30
0.0
 11
16280.00535502994
 21
-3255.475381352444
 31
0.0
  0
LINE
  5
84
100
AcDbEntity
  8
FRAME
  6
CONTINUOUS
100
AcDbLine
 10
16745.76309786779
 20
-3440.475381352456
 30
0.0
 11
16745.76309786779
 21
-3235.47538135246
 31
0.0
  0
LINE
  5
85
100
AcDbEntity
  8
MUDFLAP
  6
CONTINUOUS
100
AcDbLine
 10
15749.00535502997
 20
-3250.475381352461
 30
0.0
 11
15749.00535502997
 21
-3256.009525252729
 31
0.0
  0
LINE
  5
86
100
AcDbEntity
  8
MUDFLAP
  6
CONTINUOUS
100
AcDbLine
 10
15737.00535502997
 20
-3250.475381352461
 30
0.0
 11
15737.00535502997
 21
-3256.009525252729
 31
0.0
  0
ARC
  5
87
100
AcDbEntity
  8
MUDFLAP
  6
CONTINUOUS
100
AcDbCircle
 10
15743.00535502997
 20
-3250.475381352461
 30
0.0
 40
6.0
100
AcDbArc
 50
0.0
 51
180.0
  0
ARC
  5
88
100
AcDbEntity
  8
MUDFLAP
  6
CONTINUOUS
100
AcDbCircle
 10
15743.00535502997
 20
-3266.975381352461
 30
0.0
 40
12.5
100
AcDbArc
 50
118.6854020141111
 51
61.31459798588888
  0
LINE
  5
89
100
AcDbEntity
  8
MUDFLAP
  6
CONTINUOUS
100
AcDbLine
 10
16034.00535502997
 20
-3250.475381352461
 30
0.0
 11
16034.00535502997
 21
-3256.009525252729
 31
0.0
  0
LINE
  5
8A
100
AcDbEntity
  8
MUDFLAP
  6
CONTINUOUS
100
AcDbLine
 10
16022.00535502997
 20
-3250.475381352461
 30
0.0
 11
16022.00535502997
 21
-3256.009525252729
 31
0.0
  0
ARC
  5
8B
100
AcDbEntity
  8
MUDFLAP
  6
CONTINUOUS
100
AcDbCircle
 10
16028.00535502997
 20
-3250.475381352461
 30
0.0
 40
6.0
100
AcDbArc
 50
0.0
 51
180.0
  0
ARC
  5
8C
100
AcDbEntity
  8
MUDFLAP
  6
CONTINUOUS
100
AcDbCircle
 10
16028.00535502997
 20
-3266.975381352461
 30
0.0
 40
12.5
100
AcDbArc
 50
118.6854020141111
 51
61.31459798588888
  0
LINE
  5
8D
100
AcDbEntity
  8
MUDFLAP
  6
CONTINUOUS
100
AcDbLine
 10
16319.00535502996
 20
-3250.475381352461
 30
0.0
 11
16319.00535502996
 21
-3256.009525252729
 31
0.0
  0
LINE
  5
8E
100
AcDbEntity
  8
MUDFLAP
  6
CONTINUOUS
100
AcDbLine
 10
16307.00535502996
 20
-3250.475381352461
 30
0.0
 11
16307.00535502996
 21
-3256.009525252729
 31
0.0
  0
ARC
  5
8F
100
AcDbEntity
  8
MUDFLAP
  6
CONTINUOUS
100
AcDbCircle
 10
16313.00535502997
 20
-3250.475381352461
 30
0.0
 40
6.0
100
AcDbArc
 50
0.0
 51
180.0
  0
ARC
  5
90
100
AcDbEntity
  8
MUDFLAP
  6
CONTINUOUS
100
AcDbCircle
 10
16313.00535502997
 20
-3266.975381352461
 30
0.0
 40
12.5
100
AcDbArc
 50
118.6854020141111
 51
61.31459798588888
  0
LINE
  5
91
100
AcDbEntity
  8
MUDFLAP
  6
CONTINUOUS
100
AcDbLine
 10
16319.00535502996
 20
-3415.475381352461
 30
0.0
 11
16319.00535502996
 21
-3421.009525252729
 31
0.0
  0
LINE
  5
92
100
AcDbEntity
  8
MUDFLAP
  6
CONTINUOUS
100
AcDbLine
 10
16307.00535502996
 20
-3415.475381352461
 30
0.0
 11
16307.00535502996
 21
-3421.009525252729
 31
0.0
  0
ARC
  5
93
100
AcDbEntity
  8
MUDFLAP
  6
CONTINUOUS
100
AcDbCircle
 10
16313.00535502997
 20
-3415.475381352461
 30
0.0
 40
6.0
100
AcDbArc
 50
0.0
 51
180.0
  0
ARC
  5
94
100
AcDbEntity
  8
MUDFLAP
  6
CONTINUOUS
100
AcDbCircle
 10
16313.00535502997
 20
-3431.97538135246
 30
0.0
 40
12.5
100
AcDbArc
 50
118.6854020141111
 51
61.31459798588888
  0
LINE
  5
95
100
AcDbEntity
  8
MUDFLAP
  6
CONTINUOUS
100
AcDbLine
 10
16034.00535502997
 20
-3415.475381352461
 30
0.0
 11
16034.00535502997
 21
-3421.009525252729
 31
0.0
  0
LINE
  5
96
100
AcDbEntity
  8
MUDFLAP
  6
CONTINUOUS
100
AcDbLine
 10
16022.00535502997
 20
-3415.475381352461
 30
0.0
 11
16022.00535502997
 21
-3421.009525252729
 31
0.0
  0
ARC
  5
97
100
AcDbEntity
  8
MUDFLAP
  6
CONTINUOUS
100
AcDbCircle
 10
16028.00535502997
 20
-3415.475381352461
 30
0.0
 40
6.0
100
AcDbArc
 50
0.0
 51
180.0
  0
ARC
  5
98
100
AcDbEntity
  8
MUDFLAP
  6
CONTINUOUS
100
AcDbCircle
 10
16028.00535502997
 20
-3431.97538135246
 30
0.0
 40
12.5
100
AcDbArc
 50
118.6854020141111
 51
61.31459798588888
  0
LINE
  5
99
100
AcDbEntity
  8
MUDFLAP
  6
CONTINUOUS
100
AcDbLine
 10
15749.00535502997
 20
-3415.475381352461
 30
0.0
 11
15749.00535502997
 21
-3421.009525252729
 31
0.0
  0
LINE
  5
9A
100
AcDbEntity
  8
MUDFLAP
  6
CONTINUOUS
100
AcDbLine
 10
15737.00535502997
 20
-3415.475381352461
 30
0.0
 11
15737.00535502997
 21
-3421.009525252729
 31
0.0
  0
ARC
  5
9B
100
AcDbEntity
  8
MUDFLAP
  6
CONTINUOUS
100
AcDbCircle
 10
15743.00535502997
 20
-3415.475381352461
 30
0.0
 40
6.0
100
AcDbArc
 50
0.0
 51
180.0
  0
ARC
  5
9C
100
AcDbEntity
  8
MUDFLAP
  6
CONTINUOUS
100
AcDbCircle
 10
15743.00535502997
 20
-3431.97538135246
 30
0.0
 40
12.5
100
AcDbArc
 50
118.6854020141111
 51
61.31459798588888
  0
LINE
  5
9D
100
AcDbEntity
  8
MUDFLAP
  6
CONTINUOUS
100
AcDbLine
 10
15723.00535502991
 20
-3234.475381352504
 30
0.0
 11
16333.00535502993
 21
-3234.475381352179
 31
0.0
  0
LINE
  5
9E
100
AcDbEntity
  8
MUDFLAP
  6
CONTINUOUS
100
AcDbLine
 10
15798.00535502977
 20
-3419.47538135246
 30
0.0
 11
15805.00014221767
 21
-3419.47538135246
 31
0.0
  0
LINE
  5
9F
100
AcDbEntity
  8
MUDFLAP
  6
CONTINUOUS
100
AcDbLine
 10
15723.00535502992
 20
-3234.475381352504
 30
0.0
 11
15723.00535502997
 21
-3609.475381353523
 31
0.0
  0
LINE
  5
A0
100
AcDbEntity
  8
MUDFLAP
  6
CONTINUOUS
100
AcDbLine
 10
15778.00535502996
 20
-3274.475381352554
 30
0.0
 11
15778.00535502996
 21
-3399.475381352367
 31
0.0
  0
LINE
  5
A1
100
AcDbEntity
  8
MUDFLAP
  6
CONTINUOUS
100
AcDbLine
 10
15993.00535502997
 20
-3274.475381352554
 30
0.0
 11
15993.00535502997
 21
-3399.475381352367
 31
0.0
  0
LINE
  5
A2
100
AcDbEntity
  8
MUDFLAP
  6
CONTINUOUS
100
AcDbLine
 10
16048.00535502997
 20
-3274.475381352447
 30
0.0
 11
16048.00535502997
 21
-3399.475381352464
 31
0.0
  0
LINE
  5
A3
100
AcDbEntity
  8
MUDFLAP
  6
CONTINUOUS
100
AcDbLine
 10
16278.00535502997
 20
-3274.475381352454
 30
0.0
 11
16278.00535502997
 21
-3399.475381352461
 31
0.0
  0
LINE
  5
A4
100
AcDbEntity
  8
MUDFLAP
  6
CONTINUOUS
100
AcDbLine
 10
16333.00535502992
 20
-3234.475381352174
 30
0.0
 11
16333.00535503001
 21
-3609.475381353523
 31
0.0
  0
ARC
  5
A5
100
AcDbEntity
  8
MUDFLAP
  6
CONTINUOUS
100
AcDbCircle
 10
15798.00535502994
 20
-3274.475381352554
 30
0.0
 40
19.99999999999999
100
AcDbArc
 50
90.00000000000005
 51
180.0
  0
ARC
  5
A6
100
AcDbEntity
  8
MUDFLAP
  6
CONTINUOUS
100
AcDbCircle
 10
15798.00535502977
 20
-3399.475381352367
 30
0.0
 40
19.99999999999999
100
AcDbArc
 50
180.0
 51
270.0
  0
LINE
  5
A7
100
AcDbEntity
  8
MUDFLAP
  6
CONTINUOUS
100
AcDbLine
 10
15798.00535502994
 20
-3254.47538135246
 30
0.0
 11
15973.00535503
 21
-3254.47538135246
 31
0.0
  0
ARC
  5
A8
100
AcDbEntity
  8
MUDFLAP
  6
CONTINUOUS
100
AcDbCircle
 10
15973.00535503
 20
-3274.475381352554
 30
0.0
 40
19.99999999999999
100
AcDbArc
 50
0.0
 51
90.00000000000005
  0
LINE
  5
A9
100
AcDbEntity
  8
MUDFLAP
  6
CONTINUOUS
100
AcDbLine
 10
15798.00535502977
 20
-3419.47538135246
 30
0.0
 11
15973.00535503044
 21
-3419.47538135246
 31
0.0
  0
ARC
  5
AA
100
AcDbEntity
  8
MUDFLAP
  6
CONTINUOUS
100
AcDbCircle
 10
15973.00535503044
 20
-3399.475381352367
 30
0.0
 40
19.99999999999999
100
AcDbArc
 50
270.0
 51
0.0
  0
LINE
  5
AB
100
AcDbEntity
  8
MUDFLAP
  6
CONTINUOUS
100
AcDbLine
 10
16068.00535503052
 20
-3419.47538135246
 30
0.0
 11
16258.00535503084
 21
-3419.47538135246
 31
0.0
  0
LINE
  5
AC
100
AcDbEntity
  8
MUDFLAP
  6
CONTINUOUS
100
AcDbLine
 10
16068.00535502995
 20
-3254.47538135246
 30
0.0
 11
16258.00535503001
 21
-3254.47538135246
 31
0.0
  0
ARC
  5
AD
100
AcDbEntity
  8
MUDFLAP
  6
CONTINUOUS
100
AcDbCircle
 10
16068.00535502995
 20
-3274.475381352447
 30
0.0
 40
19.99999999999999
100
AcDbArc
 50
90.00000000000005
 51
180.0
  0
ARC
  5
AE
100
AcDbEntity
  8
MUDFLAP
  6
CONTINUOUS
100
AcDbCircle
 10
16258.00535503001
 20
-3274.475381352454
 30
0.0
 40
19.99999999999999
100
AcDbArc
 50
0.0
 51
90.00000000000005
  0
ARC
  5
AF
100
AcDbEntity
  8
MUDFLAP
  6
CONTINUOUS
100
AcDbCircle
 10
16258.00535503084
 20
-3399.475381352461
 30
0.0
 40
19.99999999999999
100
AcDbArc
 50
270.0
 51
0.0
  0
ARC
  5
B0
100
AcDbEntity
  8
MUDFLAP
  6
CONTINUOUS
100
AcDbCircle
 10
16068.00535503052
 20
-3399.475381352464
 30
0.0
 40
19.99999999999999
100
AcDbArc
 50
180.0
 51
270.0
  0
LWPOLYLINE
  5
B1
100
AcDbEntity
  8
FRAME
  6
CONTINUOUS
100
AcDbPolyline
 90
        6
 70
     1
 43
0.0
 10
15751.00535502997
 20
-3245.856579198944
 10
15743.00535502997
 20
-3241.237777045426
 10
15735.00535502997
 20
-3245.856579198944
 10
15735.00535502997
 20
-3255.094183505979
 10
15743.00535502997
 20
-3259.712985659496
 10
15751.00535502997
 20
-3255.094183505979
  0
LWPOLYLINE
  5
B2
100
AcDbEntity
  8
FRAME
  6
CONTINUOUS
100
AcDbPolyline
 90
        6
 70
     1
 43
0.0
 10
15751.00535502997
 20
-3410.856579198942
 10
15743.00535502997
 20
-3406.237777045425
 10
15735.00535502997
 20
-3410.856579198942
 10
15735.00535502997
 20
-3420.094183505979
 10
15743.00535502997
 20
-3424.712985659496
 10
15751.00535502997
 20
-3420.094183505979
  0
LWPOLYLINE
  5
B3
100
AcDbEntity
  8
FRAME
  6
CONTINUOUS
100
AcDbPolyline
 90
        6
 70
     1
 43
0.0
 10
16036.00535502997
 20
-3410.856579198942
 10
16028.00535502997
 20
-3406.237777045425
 10
16020.00535502996
 20
-3410.856579198942
 10
16020.00535502996
 20
-3420.094183505979
 10
16028.00535502997
 20
-3424.712985659496
 10
16036.00535502997
 20
-3420.094183505979
  0
LWPOLYLINE
  5
B4
100
AcDbEntity
  8
FRAME
  6
CONTINUOUS
100
AcDbPolyline
 90
        6
 70
     1
 43
0.0
 10
16036.00535502997
 20
-3245.856579198944
 10
16028.00535502997
 20
-3241.237777045426
 10
16020.00535502996
 20
-3245.856579198944
 10
16020.00535502996
 20
-3255.094183505979
 10
16028.00535502997
 20
-3259.712985659496
 10
16036.00535502997
 20
-3255.094183505979
  0
LWPOLYLINE
  5
B5
100
AcDbEntity
  8
FRAME
  6
CONTINUOUS
100
AcDbPolyline
 90
        6
 70
     1
 43
0.0
 10
16321.00535502996
 20
-3245.856579198944
 10
16313.00535502997
 20
-3241.237777045426
 10
16305.00535502996
 20
-3245.856579198944
 10
16305.00535502996
 20
-3255.094183505979
 10
16313.00535502997
 20
-3259.712985659496
 10
16321.00535502996
 20
-3255.094183505979
  0
LWPOLYLINE
  5
B6
100
AcDbEntity
  8
FRAME
  6
CONTINUOUS
100
AcDbPolyline
 90
        6
 70
     1
 43
0.0
 10
16321.00535502996
 20
-3410.856579198942
 10
16313.00535502997
 20
-3406.237777045425
 10
16305.00535502996
 20
-3410.856579198942
 10
16305.00535502996
 20
-3420.094183505979
 10
16313.00535502997
 20
-3424.712985659496
 10
16321.00535502996
 20
-3420.094183505979
  0
LINE
  5
B7
100
AcDbEntity
  8
MUDFLAP
  6
CONTINUOUS
100
AcDbLine
 10
16464.95547673293
 20
-3587.743330544634
 30
0.0
 11
16720.76309786779
 21
-3440.052731621664
 31
0.0
  0
LINE
  5
B8
100
AcDbEntity
  8
MUDFLAP
  6
CONTINUOUS
100
AcDbLine
 10
16466.95547673292
 20
-3591.207432159775
 30
0.0
 11
16722.76309786778
 21
-3443.516833236803
 31
0.0
  0
LINE
  5
B9
100
AcDbEntity
  8
MUDFLAP
  6
CONTINUOUS
100
AcDbLine
 10
16725.76309786781
 20
-3438.320680814085
 30
0.0
 11
16725.76309786781
 21
-3234.47538135196
 31
0.0
  0
LINE
  5
BA
100
AcDbEntity
  8
MUDFLAP
  6
CONTINUOUS
100
AcDbLine
 10
16721.76309786781
 20
-3234.47538135196
 30
0.0
 11
16725.76309786781
 21
-3234.47538135196
 31
0.0
  0
LINE
  5
BB
100
AcDbEntity
  8
MUDFLAP
  6
CONTINUOUS
100
AcDbLine
 10
16461.95547673248
 20
-3592.93948296733
 30
0.0
 11
16461.95547673248
 21
-3609.475381352461
 31
0.0
  0
LINE
  5
BC
100
AcDbEntity
  8
MUDFLAP
  6
CONTINUOUS
100
AcDbLine
 10
16465.95547673248
 20
-3592.939482967352
 30
0.0
 11
16465.95547673248
 21
-3609.475381352461
 31
0.0
  0
ARC
  5
BD
100
AcDbEntity
  8
MUDFLAP
  6
CONTINUOUS
100
AcDbCircle
 10
16467.95547673292
 20
-3592.939482967352
 30
0.0
 40
1.999999999999999
100
AcDbArc
 50
119.9999999999876
 51
180.0000000000206
  0
ARC
  5
BE
100
AcDbEntity
  8
MUDFLAP
  6
CONTINUOUS
100
AcDbCircle
 10
16719.76309786778
 20
-3438.320680814079
 30
0.0
 40
1.999999999999999
100
AcDbArc
 50
300.0000000000142
 51
0.0000000000000799
  0
ARC
  5
BF
100
AcDbEntity
  8
MUDFLAP
  6
CONTINUOUS
100
AcDbCircle
 10
16467.95547673292
 20
-3592.93948296733
 30
0.0
 40
6.0
100
AcDbArc
 50
120.0000000000098
 51
180.0
  0
ARC
  5
C0
100
AcDbEntity
  8
MUDFLAP
  6
CONTINUOUS
100
AcDbCircle
 10
16719.76309786778
 20
-3438.320680814085
 30
0.0
 40
6.0
100
AcDbArc
 50
299.9999999999722
 51
0.0
  0
LINE
  5
C1
100
AcDbEntity
  8
MUDFLAP
  6
CONTINUOUS
100
AcDbLine
 10
16465.95547673248
 20
-3609.475381352461
 30
0.0
 11
16461.95547673248
 21
-3609.475381352461
 31
0.0
  0
LINE
  5
C2
100
AcDbEntity
  8
MUDFLAP
  6
CONTINUOUS
100
AcDbLine
 10
16333.00535503002
 20
-3609.475381353529
 30
0.0
 11
15723.00535502999
 21
-3609.475381353529
 31
0.0
  0
LINE
  5
C3
100
AcDbEntity
  8
MUDFLAP
  6
CONTINUOUS
100
AcDbLine
 10
16469.36695085613
 20
-3584.041664234925
 30
0.0
 11
16674.6188500615
 21
-3411.814871313181
 31
0.0
  0
LINE
  5
C4
100
AcDbEntity
  8
MUDFLAP
  6
CONTINUOUS
100
AcDbLine
 10
16469.3669508607
 20
-3584.041664231097
 30
0.0
 11
16469.86695086069
 21
-3584.907689634849
 31
0.0
  0
LINE
  5
C5
100
AcDbEntity
  8
MUDFLAP
  6
CONTINUOUS
100
AcDbLine
 10
16681.76309786783
 20
-3396.493982450825
 30
0.0
 11
16681.76309786781
 21
-3281.953771464133
 31
0.0
  0
LINE
  5
C6
100
AcDbEntity
  8
MUDFLAP
  6
CONTINUOUS
100
AcDbLine
 10
16681.7630978678
 20
-3281.953771464346
 30
0.0
 11
16720.76309787458
 21
-3235.475381345278
 31
0.0
  0
LINE
  5
C7
100
AcDbEntity
  8
MUDFLAP
  6
CONTINUOUS
100
AcDbLine
 10
16720.76309786755
 20
-3235.475381352316
 30
0.0
 11
16721.7630978678
 21
-3235.475381352189
 31
0.0
  0
LINE
  5
C8
100
AcDbEntity
  8
MUDFLAP
  6
CONTINUOUS
100
AcDbLine
 10
15766.00535502997
 20
-3235.47538135223
 30
0.0
 11
15766.00535503003
 21
-3584.907689635884
 31
0.0
  0
LINE
  5
C9
100
AcDbEntity
  8
MUDFLAP
  6
CONTINUOUS
100
AcDbLine
 10
15770.00535502993
 20
-3235.47538135223
 30
0.0
 11
15770.00535503005
 21
-3584.907689635884
 31
0.0
  0
LINE
  5
CA
100
AcDbEntity
  8
MUDFLAP
  6
CONTINUOUS
100
AcDbLine
 10
15770.00535503001
 20
-3584.907689635917
 30
0.0
 11
15766.00535503003
 21
-3584.907689635917
 31
0.0
  0
LINE
  5
CB
100
AcDbEntity
  8
MUDFLAP
  6
CONTINUOUS
100
AcDbLine
 10
15770.00535502994
 20
-3235.475381352485
 30
0.0
 11
15766.00535502998
 21
-3235.475381352485
 31
0.0
  0
LINE
  5
CC
100
AcDbEntity
  8
MUDFLAP
  6
CONTINUOUS
100
AcDbLine
 10
16005.00535503001
 20
-3584.907689635917
 30
0.0
 11
16001.00535503004
 21
-3584.907689635917
 31
0.0
  0
LINE
  5
CD
100
AcDbEntity
  8
MUDFLAP
  6
CONTINUOUS
100
AcDbLine
 10
16005.00535502994
 20
-3235.475381352485
 30
0.0
 11
16001.00535502998
 21
-3235.475381352485
 31
0.0
  0
LINE
  5
CE
100
AcDbEntity
  8
MUDFLAP
  6
CONTINUOUS
100
AcDbLine
 10
16005.00535502993
 20
-3235.47538135223
 30
0.0
 11
16005.00535503002
 21
-3584.907689635841
 31
0.0
  0
LINE
  5
CF
100
AcDbEntity
  8
MUDFLAP
  6
CONTINUOUS
100
AcDbLine
 10
16001.00535502997
 20
-3235.47538135223
 30
0.0
 11
16001.00535503002
 21
-3584.907689635842
 31
0.0
  0
LINE
  5
D0
100
AcDbEntity
  8
MUDFLAP
  6
CONTINUOUS
100
AcDbLine
 10
16290.00535503001
 20
-3584.907689635917
 30
0.0
 11
16286.00535503004
 21
-3584.907689635917
 31
0.0
  0
LINE
  5
D1
100
AcDbEntity
  8
MUDFLAP
  6
CONTINUOUS
100
AcDbLine
 10
16290.00535502994
 20
-3235.475381352485
 30
0.0
 11
16286.00535502997
 21
-3235.475381352485
 31
0.0
  0
LINE
  5
D2
100
AcDbEntity
  8
MUDFLAP
  6
CONTINUOUS
100
AcDbLine
 10
16290.00535502993
 20
-3235.47538135223
 30
0.0
 11
16290.00535503003
 21
-3584.90768963579
 31
0.0
  0
LINE
  5
D3
100
AcDbEntity
  8
MUDFLAP
  6
CONTINUOUS
100
AcDbLine
 10
16286.00535502997
 20
-3235.47538135223
 30
0.0
 11
16286.00535503001
 21
-3584.90768963579
 31
0.0
  0
LINE
  5
D4
100
AcDbEntity
  8
MUDFLAP
  6
CONTINUOUS
100
AcDbLine
 10
16711.7630978678
 20
-3369.475381351679
 30
0.0
 11
16711.7630978678
 21
-3289.475381351678
 31
0.0
  0
LINE
  5
D5
100
AcDbEntity
  8
MUDFLAP
  6
CONTINUOUS
100
AcDbLine
 10
16691.7630978678
 20
-3289.475381351678
 30
0.0
 11
16691.7630978678
 21
-3369.475381351679
 31
0.0
  0
ARC
  5
D6
100
AcDbEntity
  8
MUDFLAP
  6
CONTINUOUS
100
AcDbCircle
 10
16701.7630978678
 20
-3289.475381351678
 30
0.0
 40
9.999999999999998
100
AcDbArc
 50
0.0
 51
180.0
  0
ARC
  5
D7
100
AcDbEntity
  8
MUDFLAP
  6
CONTINUOUS
100
AcDbCircle
 10
16701.7630978678
 20
-3369.475381351679
 30
0.0
 40
9.999999999999998
100
AcDbArc
 50
180.0
 51
0.0
  0
TEXT
  5
D9
100
AcDbEntity
  8
COMMENTS
100
AcDbText
 10
16680.76565645023
 20
-3602.420184033805
 30
0.0
 40
7.215346385995649
  1
Drg version 1.1 / 30 Aug 2015
 41
0.6000000000000001
  7
ARIAL
 11
16680.76565645023
 21
-3602.420184033805
 31
0.0
100
AcDbText
 73
     1
  0
LINE
  5
DA
100
AcDbEntity
  8
ARMOUR
  6
CONTINUOUS
 62
     7
100
AcDbLine
 10
16905.01659704521
 20
-3465.459173251902
 30
0.0
 11
16745.76309786779
 21
-3445.47538135218
 31
0.0
  0
TEXT
  5
DB
100
AcDbEntity
  8
COMMENTS
  6
CONTINUOUS
100
AcDbText
 10
16432.53562578024
 20
-3139.881080207346
 30
0.0
 40
14.43069277199129
  1
FIXED MUDFLAP
 41
0.6000000000000001
  7
ARIAL
 11
16432.53562578024
 21
-3139.881080207346
 31
0.0
100
AcDbText
 73
     1
  0
TEXT
  5
DC
100
AcDbEntity
  8
COMMENTS
  6
CONTINUOUS
100
AcDbText
 10
16432.53562578024
 20
-3161.527119365332
 30
-21.64603915798694
 40
14.43069277199129
  1
installed on right side.
 41
0.6000000000000001
  7
ARIAL
 11
16432.53562578024
 21
-3161.527119365332
 31
-21.64603915798694
100
AcDbText
 73
     1
  0
TEXT
  5
DD
100
AcDbEntity
  8
COMMENTS
  6
CONTINUOUS
100
AcDbText
 10
16432.53562578024
 20
-3183.173158523319
 30
-43.29207831597389
 40
14.43069277199129
  1
Left mudflap was
 41
0.6000000000000001
  7
ARIAL
 11
16432.53562578024
 21
-3183.173158523319
 31
-43.29207831597389
100
AcDbText
 73
     1
  0
TEXT
  5
DE
100
AcDbEntity
  8
COMMENTS
  6
CONTINUOUS
100
AcDbText
 10
16432.53562578024
 20
-3204.819197681306
 30
-64.93811747396083
 40
14.43069277199129
  1
identical.
 41
0.6000000000000001
  7
ARIAL
 11
16432.53562578024
 21
-3204.819197681306
 31
-64.93811747396083
100
AcDbText
 73
     1
  0
ARC
  5
DF
100
AcDbEntity
  8
MUDFLAP
  6
CONTINUOUS
100
AcDbCircle
 10
16661.76309786778
 20
-3396.493982450828
 30
0.0
 40
19.99999999999999
100
AcDbArc
 50
310.0000000000128
 51
0.0000000000083134
  0
INSERT
  5
EE
100
AcDbEntity
  8
ARMOUR
  6
CONTINUOUS
100
AcDbBlockReference
  2
HATCH54976
 10
16838.8479762701
 20
-3330.026342851773
 30
0.0
  0
LINE
  5
EF
100
AcDbEntity
  8
FRAME
  6
CONTINUOUS
100
AcDbLine
 10
16717.76309786782
 20
-3259.71298565978
 30
0.0
 11
16725.7630978678
 21
-3259.712985659788
 31
0.0
  0
LINE
  5
F0
100
AcDbEntity
  8
FRAME
  6
CONTINUOUS
100
AcDbLine
 10
16717.76309786782
 20
-3255.094183506256
 30
0.0
 11
16725.7630978678
 21
-3255.094183506302
 31
0.0
  0
LINE
  5
F1
100
AcDbEntity
  8
FRAME
  6
CONTINUOUS
100
AcDbLine
 10
16717.76309786782
 20
-3245.856579199207
 30
0.0
 11
16725.7630978678
 21
-3245.856579199097
 31
0.0
  0
LINE
  5
F2
100
AcDbEntity
  8
FRAME
  6
CONTINUOUS
100
AcDbLine
 10
16717.76309786782
 20
-3241.237777045724
 30
0.0
 11
16725.7630978678
 21
-3241.237777045718
 31
0.0
  0
LINE
  5
F3
100
AcDbEntity
  8
FRAME
  6
CONTINUOUS
100
AcDbLine
 10
16717.76309786785
 20
-3259.712985660112
 30
0.0
 11
16717.76309786782
 21
-3241.237777046583
 31
0.0
  0
LINE
  5
F4
100
AcDbEntity
  8
FRAME
  6
CONTINUOUS
100
AcDbLine
 10
16717.76309786782
 20
-3424.712985659776
 30
0.0
 11
16725.7630978678
 21
-3424.712985659785
 31
0.0
  0
LINE
  5
F5
100
AcDbEntity
  8
FRAME
  6
CONTINUOUS
100
AcDbLine
 10
16717.76309786782
 20
-3420.094183506251
 30
0.0
 11
16725.7630978678
 21
-3420.094183506297
 31
0.0
  0
LINE
  5
F6
100
AcDbEntity
  8
FRAME
  6
CONTINUOUS
100
AcDbLine
 10
16717.76309786782
 20
-3410.856579199204
 30
0.0
 11
16725.7630978678
 21
-3410.856579199094
 31
0.0
  0
LINE
  5
F7
100
AcDbEntity
  8
FRAME
  6
CONTINUOUS
100
AcDbLine
 10
16717.76309786782
 20
-3406.23777704572
 30
0.0
 11
16725.7630978678
 21
-3406.237777045715
 31
0.0
  0
LINE
  5
F8
100
AcDbEntity
  8
FRAME
  6
CONTINUOUS
100
AcDbLine
 10
16717.76309786785
 20
-3424.712985660109
 30
0.0
 11
16717.76309786782
 21
-3406.23777704658
 31
0.0
  0
LINE
  5
F9
100
AcDbEntity
  8
MUDFLAP
  6
CONTINUOUS
100
AcDbLine
 10
16721.76309786777
 20
-3241.237777045411
 30
0.0
 11
16721.76309786781
 21
-3234.47538135196
 31
0.0
  0
LINE
  5
FA
100
AcDbEntity
  8
MUDFLAP
  6
CONTINUOUS
100
AcDbLine
 10
16721.76309786781
 20
-3438.320680814079
 30
0.0
 11
16721.76309786746
 21
-3424.712985659874
 31
0.0
  0
LINE
  5
FB
100
AcDbEntity
  8
MUDFLAP
  6
CONTINUOUS
100
AcDbLine
 10
16721.7630978678
 20
-3406.237777044756
 30
0.0
 11
16721.7630978678
 21
-3259.712985660026
 31
0.0
  0
ENDSEC
  0
SECTION
  2
OBJECTS
  0
DICTIONARY
  5
C
100
AcDbDictionary
  3
ACAD_GROUP
350
D
  3
ACAD_MLINESTYLE
350
1B
  3
ACDBVARIABLEDICTIONARY
350
1E
  0
DICTIONARY
  5
D
102
{ACAD_REACTORS
330
C
102
}
100
AcDbDictionary
  0
DICTIONARY
  5
1B
102
{ACAD_REACTORS
330
C
102
}
100
AcDbDictionary
  3
STANDARD
350
1C
  0
DICTIONARY
  5
1E
102
{ACAD_REACTORS
330
C
102
}
100
AcDbDictionary
  3
DIMADEC
350
1F
  0
MLINESTYLE
  5
1C
102
{ACAD_REACTORS
330
1B
102
}
100
AcDbMlineStyle
  2
STANDARD
 70
     0
  3

 62
   256
 51
90.0
 52
90.0
 71
     2
 49
0.5
 62
   256
  6
BYLAYER
 49
-0.5
 62
   256
  6
BYLAYER
  0
DICTIONARYVAR
  5
1F
102
{ACAD_REACTORS
330
1E
102
}
100
DictionaryVariables
280
     0
  1
-1
  0
ENDSEC
  0
EOF
