  0
SECTION
  2
HEADER
  9
$ACADVER
  1
AC1014
  9
$ACADMAINTVER
 70
     5
  9
$DWGCODEPAGE
  3
ANSI_1252
  9
$INSBASE
 10
0.0
 20
0.0
 30
0.0
  9
$EXTMIN
 10
1.000000000000000E+20
 20
1.000000000000000E+20
 30
1.000000000000000E+20
  9
$EXTMAX
 10
-1.000000000000000E+20
 20
-1.000000000000000E+20
 30
-1.000000000000000E+20
  9
$LIMMIN
 10
0.0
 20
0.0
  9
$LIMMAX
 10
12.0
 20
9.0
  9
$ORTHOMODE
 70
     0
  9
$REGENMODE
 70
     1
  9
$FILLMODE
 70
     1
  9
$QTEXTMODE
 70
     0
  9
$MIRRTEXT
 70
     1
  9
$DRAGMODE
 70
     2
  9
$LTSCALE
 40
1.0
  9
$OSMODE
 70
     0
  9
$ATTMODE
 70
     0
  9
$TEXTSIZE
 40
9.999999999999998
  9
$TRACEWID
 40
0.05
  9
$TEXTSTYLE
  7
STANDARD
  9
$CLAYER
  8
0
  9
$CELTYPE
  6
BYLAYER
  9
$CECOLOR
 62
   256
  9
$CELTSCALE
 40
1.0
  9
$DELOBJ
 70
     1
  9
$DISPSILH
 70
     0
  9
$DIMSCALE
 40
1.0
  9
$DIMASZ
 40
0.18
  9
$DIMEXO
 40
0.0625
  9
$DIMDLI
 40
0.38
  9
$DIMRND
 40
0.0
  9
$DIMDLE
 40
0.0
  9
$DIMEXE
 40
0.18
  9
$DIMTP
 40
0.0
  9
$DIMTM
 40
0.0
  9
$DIMTXT
 40
0.3937007874015748
  9
$DIMCEN
 40
0.09
  9
$DIMTSZ
 40
0.0
  9
$DIMTOL
 70
     0
  9
$DIMLIM
 70
     0
  9
$DIMTIH
 70
     1
  9
$DIMTOH
 70
     1
  9
$DIMSE1
 70
     0
  9
$DIMSE2
 70
     0
  9
$DIMTAD
 70
     0
  9
$DIMZIN
 70
     0
  9
$DIMBLK
  1

  9
$DIMASO
 70
     1
  9
$DIMSHO
 70
     1
  9
$DIMPOST
  1

  9
$DIMAPOST
  1

  9
$DIMALT
 70
     0
  9
$DIMALTD
 70
     2
  9
$DIMALTF
 40
25.4
  9
$DIMLFAC
 40
1.0
  9
$DIMTOFL
 70
     0
  9
$DIMTVP
 40
0.0
  9
$DIMTIX
 70
     0
  9
$DIMSOXD
 70
     0
  9
$DIMSAH
 70
     0
  9
$DIMBLK1
  1

  9
$DIMBLK2
  1

  9
$DIMSTYLE
  2
STANDARD
  9
$DIMCLRD
 70
     0
  9
$DIMCLRE
 70
     0
  9
$DIMCLRT
 70
     0
  9
$DIMTFAC
 40
1.0
  9
$DIMGAP
 40
0.09
  9
$DIMJUST
 70
     0
  9
$DIMSD1
 70
     0
  9
$DIMSD2
 70
     0
  9
$DIMTOLJ
 70
     1
  9
$DIMTZIN
 70
     0
  9
$DIMALTZ
 70
     0
  9
$DIMALTTZ
 70
     0
  9
$DIMFIT
 70
     3
  9
$DIMUPT
 70
     0
  9
$DIMUNIT
 70
     4
  9
$DIMDEC
 70
    -1
  9
$DIMTDEC
 70
     4
  9
$DIMALTU
 70
     2
  9
$DIMALTTD
 70
     2
  9
$DIMTXSTY
  7
STANDARD
  9
$DIMAUNIT
 70
     1
  9
$LUNITS
 70
     2
  9
$LUPREC
 70
     1
  9
$SKETCHINC
 40
0.1
  9
$FILLETRAD
 40
1.999999999999999
  9
$AUNITS
 70
     0
  9
$AUPREC
 70
     2
  9
$MENU
  1
.
  9
$ELEVATION
 40
0.0
  9
$PELEVATION
 40
0.0
  9
$THICKNESS
 40
0.0
  9
$LIMCHECK
 70
     0
  9
$BLIPMODE
 70
     0
  9
$CHAMFERA
 40
4.999999999999999
  9
$CHAMFERB
 40
4.999999999999999
  9
$CHAMFERC
 40
0.0
  9
$CHAMFERD
 40
0.0
  9
$SKPOLY
 70
     0
  9
$TDCREATE
 40
0.0000000000
  9
$TDUPDATE
 40
0.0000000000
  9
$TDINDWG
 40
0.0000000000
  9
$TDUSRTIMER
 40
0.0000000000
  9
$USRTIMER
 70
     1
  9
$ANGBASE
 50
0.0
  9
$ANGDIR
 70
     0
  9
$PDMODE
 70
     0
  9
$PDSIZE
 40
0.0
  9
$PLINEWID
 40
0.0
  9
$COORDS
 70
     1
  9
$SPLFRAME
 70
     0
  9
$SPLINETYPE
 70
     6
  9
$SPLINESEGS
 70
     8
  9
$ATTDIA
 70
     0
  9
$ATTREQ
 70
     1
  9
$HANDLING
 70
     1
  9
$HANDSEED
  5
1C6
  9
$SURFTAB1
 70
     6
  9
$SURFTAB2
 70
     6
  9
$SURFTYPE
 70
     6
  9
$SURFU
 70
     6
  9
$SURFV
 70
     6
  9
$UCSNAME
  2

  9
$UCSORG
 10
0.0
 20
0.0
 30
0.0
  9
$UCSXDIR
 10
1.0
 20
0.0
 30
0.0
  9
$UCSYDIR
 10
0.0
 20
1.0
 30
0.0
  9
$PUCSNAME
  2

  9
$PUCSORG
 10
0.0
 20
0.0
 30
0.0
  9
$PUCSXDIR
 10
1.0
 20
0.0
 30
0.0
  9
$PUCSYDIR
 10
0.0
 20
1.0
 30
0.0
  9
$USERI1
 70
     0
  9
$USERI2
 70
     0
  9
$USERI3
 70
     0
  9
$USERI4
 70
     0
  9
$USERI5
 70
     0
  9
$USERR1
 40
0.0
  9
$USERR2
 40
0.0
  9
$USERR3
 40
0.0
  9
$USERR4
 40
0.0
  9
$USERR5
 40
0.0
  9
$WORLDVIEW
 70
     1
  9
$SHADEDGE
 70
     3
  9
$SHADEDIF
 70
    70
  9
$TILEMODE
 70
     1
  9
$MAXACTVP
 70
    48
  9
$PINSBASE
 10
0.0
 20
0.0
 30
0.0
  9
$PLIMCHECK
 70
     0
  9
$PEXTMIN
 10
1.000000000000000E+20
 20
1.000000000000000E+20
 30
1.000000000000000E+20
  9
$PEXTMAX
 10
-1.000000000000000E+20
 20
-1.000000000000000E+20
 30
-1.000000000000000E+20
  9
$PLIMMIN
 10
0.0
 20
0.0
  9
$PLIMMAX
 10
12.0
 20
9.0
  9
$UNITMODE
 70
     0
  9
$VISRETAIN
 70
     1
  9
$PLINEGEN
 70
     0
  9
$PSLTSCALE
 70
     1
  9
$TREEDEPTH
 70
  3020
  9
$PICKSTYLE
 70
     1
  9
$CMLSTYLE
  2
STANDARD
  9
$CMLJUST
 70
     0
  9
$CMLSCALE
 40
1.0
  9
$PROXYGRAPHICS
 70
     1
  9
$MEASUREMENT
 70
     0
  0
ENDSEC
  0
SECTION
  2
CLASSES
  0
CLASS
  1
DICTIONARYVAR
  2
AcDbDictionaryVar
  3
"AutoCAD"
 90
        0
280
     0
281
     0
  0
CLASS
  1
LWPOLYLINE
  2
AcDbPolyline
  3
"AutoCAD"
 90
        0
280
     0
281
     1
  0
ENDSEC
  0
SECTION
  2
TABLES
  0
TABLE
  2
VPORT
  5
8
100
AcDbSymbolTable
 70
     1
  0
VPORT
  5
11
100
AcDbSymbolTableRecord
100
AcDbViewportTableRecord
  2
*ACTIVE
 70
     0
 10
0.0
 20
0.0
 11
1.0
 21
1.0
 12
3.6
 22
4.5
 13
0.0
 23
0.0
 14
1.0
 24
1.0
 15
0.0
 25
0.0
 16
0.0
 26
0.0
 36
1.0
 17
0.0
 27
0.0
 37
0.0
 40
15.0
 41
0.8
 42
50.0
 43
0.0
 44
0.0
 50
0.0
 51
0.0
 71
     0
 72
   100
 73
     1
 74
     1
 75
     0
 76
     0
 77
     0
 78
     0
  0
ENDTAB
  0
TABLE
  2
LTYPE
  5
5
100
AcDbSymbolTable
 70
    40
  0
LTYPE
  5
12
100
AcDbSymbolTableRecord
100
AcDbLinetypeTableRecord
  2
BYBLOCK
 70
     0
  3

 72
    65
 73
     0
 40
0.0
  0
LTYPE
  5
13
100
AcDbSymbolTableRecord
100
AcDbLinetypeTableRecord
  2
BYLAYER
 70
     0
  3

 72
    65
 73
     0
 40
0.0
  0
LTYPE
  5
14
100
AcDbSymbolTableRecord
100
AcDbLinetypeTableRecord
  2
CONTINUOUS
 70
     0
  3
Solid line
 72
    65
 73
     0
 40
0.0
  0
LTYPE
  5
20
100
AcDbSymbolTableRecord
100
AcDbLinetypeTableRecord
  2
HIDDEN
 70
     0
  3
_ _ _ _ _ _ _ _ _ _ _ _ _ _ 
 72
    65
 73
     2
 40
9.524999999999998
 49
6.349999999999999
 74
     0
 49
-3.174999999999999
 74
     0
  0
LTYPE
  5
21
100
AcDbSymbolTableRecord
100
AcDbLinetypeTableRecord
  2
DASHED
 70
     0
  3
__ __ __ __ __ __ __ __ __ 
 72
    65
 73
     2
 40
19.04999999999999
 49
12.7
 74
     0
 49
-6.349999999999999
 74
     0
  0
LTYPE
  5
22
100
AcDbSymbolTableRecord
100
AcDbLinetypeTableRecord
  2
CENTER
 70
     0
  3
____ _ ____ _ ____ _ ____ _ 
 72
    65
 73
     4
 40
50.8
 49
31.75
 74
     0
 49
-6.349999999999999
 74
     0
 49
6.349999999999999
 74
     0
 49
-6.349999999999999
 74
     0
  0
LTYPE
  5
23
100
AcDbSymbolTableRecord
100
AcDbLinetypeTableRecord
  2
PHANTOM
 70
     0
  3
_____ _ _ _____ _ _ _____ _ _ 
 72
    65
 73
     6
 40
63.50000000000001
 49
31.75
 74
     0
 49
-6.349999999999999
 74
     0
 49
6.349999999999999
 74
     0
 49
-6.349999999999999
 74
     0
 49
6.349999999999999
 74
     0
 49
-6.349999999999999
 74
     0
  0
LTYPE
  5
24
100
AcDbSymbolTableRecord
100
AcDbLinetypeTableRecord
  2
DOT
 70
     0
  3
...........................
 72
    65
 73
     2
 40
6.349999999999999
 49
0.0
 74
     0
 49
-6.349999999999999
 74
     0
  0
LTYPE
  5
25
100
AcDbSymbolTableRecord
100
AcDbLinetypeTableRecord
  2
DASHDOT
 70
     0
  3
__ . __ . __ . __ . __ . __ . 
 72
    65
 73
     4
 40
25.4
 49
12.7
 74
     0
 49
-6.349999999999999
 74
     0
 49
0.0
 74
     0
 49
-6.349999999999999
 74
     0
  0
LTYPE
  5
26
100
AcDbSymbolTableRecord
100
AcDbLinetypeTableRecord
  2
DIVIDE
 70
     0
  3
__ . . __ . . __ . . __ . . 
 72
    65
 73
     6
 40
31.75
 49
12.7
 74
     0
 49
-6.349999999999999
 74
     0
 49
0.0
 74
     0
 49
-6.349999999999999
 74
     0
 49
0.0
 74
     0
 49
-6.349999999999999
 74
     0
  0
LTYPE
  5
27
100
AcDbSymbolTableRecord
100
AcDbLinetypeTableRecord
  2
BORDER
 70
     0
  3
__ __ . __ __ . __ __ . __ __ .
 72
    65
 73
     6
 40
44.44999999999999
 49
12.7
 74
     0
 49
-6.349999999999999
 74
     0
 49
12.7
 74
     0
 49
-6.349999999999999
 74
     0
 49
0.0
 74
     0
 49
-6.349999999999999
 74
     0
  0
LTYPE
  5
28
100
AcDbSymbolTableRecord
100
AcDbLinetypeTableRecord
  2
BORDER2
 70
     0
  3
Border (.5x) __.__.__.__.__.__.
 72
    65
 73
     6
 40
0.875
 49
0.25
 74
     0
 49
-0.125
 74
     0
 49
0.25
 74
     0
 49
-0.125
 74
     0
 49
0.0
 74
     0
 49
-0.125
 74
     0
  0
LTYPE
  5
29
100
AcDbSymbolTableRecord
100
AcDbLinetypeTableRecord
  2
BORDERX2
 70
     0
  3
Border (2x) ____  ____  .  ____
 72
    65
 73
     6
 40
3.5
 49
1.0
 74
     0
 49
-0.5
 74
     0
 49
1.0
 74
     0
 49
-0.5
 74
     0
 49
0.0
 74
     0
 49
-0.5
 74
     0
  0
LTYPE
  5
2A
100
AcDbSymbolTableRecord
100
AcDbLinetypeTableRecord
  2
CENTER2
 70
     0
  3
Center (.5x) ___ _ ___ _ ___ _ 
 72
    65
 73
     4
 40
1.125
 49
0.75
 74
     0
 49
-0.125
 74
     0
 49
0.125
 74
     0
 49
-0.125
 74
     0
  0
LTYPE
  5
2B
100
AcDbSymbolTableRecord
100
AcDbLinetypeTableRecord
  2
CENTERX2
 70
     0
  3
Center (2x) ________  __  _____
 72
    65
 73
     4
 40
4.0
 49
2.5
 74
     0
 49
-0.5
 74
     0
 49
0.5
 74
     0
 49
-0.5
 74
     0
  0
LTYPE
  5
2C
100
AcDbSymbolTableRecord
100
AcDbLinetypeTableRecord
  2
DASHDOT2
 70
     0
  3
Dash dot (.5x) _._._._._._._._.
 72
    65
 73
     4
 40
0.5
 49
0.25
 74
     0
 49
-0.125
 74
     0
 49
0.0
 74
     0
 49
-0.125
 74
     0
  0
LTYPE
  5
2D
100
AcDbSymbolTableRecord
100
AcDbLinetypeTableRecord
  2
DASHDOTX2
 70
     0
  3
Dash dot (2x) ____  .  ____  . 
 72
    65
 73
     4
 40
2.0
 49
1.0
 74
     0
 49
-0.5
 74
     0
 49
0.0
 74
     0
 49
-0.5
 74
     0
  0
LTYPE
  5
2E
100
AcDbSymbolTableRecord
100
AcDbLinetypeTableRecord
  2
DASHED2
 70
     0
  3
Dashed (.5x) _ _ _ _ _ _ _ _ _ 
 72
    65
 73
     2
 40
0.375
 49
0.25
 74
     0
 49
-0.125
 74
     0
  0
LTYPE
  5
2F
100
AcDbSymbolTableRecord
100
AcDbLinetypeTableRecord
  2
DASHEDX2
 70
     0
  3
Dashed (2x) ____  ____  ____  _
 72
    65
 73
     2
 40
1.5
 49
1.0
 74
     0
 49
-0.5
 74
     0
  0
LTYPE
  5
30
100
AcDbSymbolTableRecord
100
AcDbLinetypeTableRecord
  2
DIVIDE2
 70
     0
  3
Divide (.5x) __..__..__..__..__
 72
    65
 73
     6
 40
0.625
 49
0.25
 74
     0
 49
-0.125
 74
     0
 49
0.0
 74
     0
 49
-0.125
 74
     0
 49
0.0
 74
     0
 49
-0.125
 74
     0
  0
LTYPE
  5
31
100
AcDbSymbolTableRecord
100
AcDbLinetypeTableRecord
  2
DIVIDEX2
 70
     0
  3
Divide (2x) ________  .  .  ___
 72
    65
 73
     6
 40
2.5
 49
1.0
 74
     0
 49
-0.5
 74
     0
 49
0.0
 74
     0
 49
-0.5
 74
     0
 49
0.0
 74
     0
 49
-0.5
 74
     0
  0
LTYPE
  5
32
100
AcDbSymbolTableRecord
100
AcDbLinetypeTableRecord
  2
DOT2
 70
     0
  3
Dot (.5x) .....................
 72
    65
 73
     2
 40
0.125
 49
0.0
 74
     0
 49
-0.125
 74
     0
  0
LTYPE
  5
33
100
AcDbSymbolTableRecord
100
AcDbLinetypeTableRecord
  2
DOTX2
 70
     0
  3
Dot (2x) .  .  .  .  .  .  .  .
 72
    65
 73
     2
 40
0.5
 49
0.0
 74
     0
 49
-0.5
 74
     0
  0
LTYPE
  5
34
100
AcDbSymbolTableRecord
100
AcDbLinetypeTableRecord
  2
HIDDEN2
 70
     0
  3
Hidden (.5x) _ _ _ _ _ _ _ _ _ 
 72
    65
 73
     2
 40
0.1875
 49
0.125
 74
     0
 49
-0.0625
 74
     0
  0
LTYPE
  5
35
100
AcDbSymbolTableRecord
100
AcDbLinetypeTableRecord
  2
HIDDENX2
 70
     0
  3
Hidden (2x) ____ ____ ____ ____
 72
    65
 73
     2
 40
0.75
 49
0.5
 74
     0
 49
-0.25
 74
     0
  0
LTYPE
  5
36
100
AcDbSymbolTableRecord
100
AcDbLinetypeTableRecord
  2
PHANTOM2
 70
     0
  3
Phantom (.5x) ___ _ _ ___ _ _ _
 72
    65
 73
     6
 40
1.25
 49
0.625
 74
     0
 49
-0.125
 74
     0
 49
0.125
 74
     0
 49
-0.125
 74
     0
 49
0.125
 74
     0
 49
-0.125
 74
     0
  0
LTYPE
  5
37
100
AcDbSymbolTableRecord
100
AcDbLinetypeTableRecord
  2
PHANTOMX2
 70
     0
  3
Phantom (2x) ____________    __
 72
    65
 73
     6
 40
5.0
 49
2.5
 74
     0
 49
-0.5
 74
     0
 49
0.5
 74
     0
 49
-0.5
 74
     0
 49
0.5
 74
     0
 49
-0.5
 74
     0
  0
LTYPE
  5
38
100
AcDbSymbolTableRecord
100
AcDbLinetypeTableRecord
  2
DOTS
 70
     0
  3
Dots - - - - - - - - - - - - - 
 72
    65
 73
     2
 40
0.1
 49
0.05
 74
     0
 49
-0.05
 74
     0
  0
LTYPE
  5
39
100
AcDbSymbolTableRecord
100
AcDbLinetypeTableRecord
  2
ACAD_ISO02W100
 70
     0
  3
__ __ __ __ __ __ __ __ __ __ _
 72
    65
 73
     2
 40
15.0
 49
12.0
 74
     0
 49
-3.0
 74
     0
  0
LTYPE
  5
3A
100
AcDbSymbolTableRecord
100
AcDbLinetypeTableRecord
  2
ACAD_ISO03W100
 70
     0
  3
__    __    __    __    __    _
 72
    65
 73
     2
 40
30.0
 49
12.0
 74
     0
 49
-18.0
 74
     0
  0
LTYPE
  5
3B
100
AcDbSymbolTableRecord
100
AcDbLinetypeTableRecord
  2
ACAD_ISO04W100
 70
     0
  3
____ . ____ . ____ . ____ . ___
 72
    65
 73
     4
 40
30.5
 49
24.0
 74
     0
 49
-3.0
 74
     0
 49
0.5
 74
     0
 49
-3.0
 74
     0
  0
LTYPE
  5
3C
100
AcDbSymbolTableRecord
100
AcDbLinetypeTableRecord
  2
ACAD_ISO05W100
 70
     0
  3
____ .. ____ .. ____ .. ____ ..
 72
    65
 73
     6
 40
34.0
 49
24.0
 74
     0
 49
-3.0
 74
     0
 49
0.5
 74
     0
 49
-3.0
 74
     0
 49
0.5
 74
     0
 49
-3.0
 74
     0
  0
LTYPE
  5
3D
100
AcDbSymbolTableRecord
100
AcDbLinetypeTableRecord
  2
ACAD_ISO06W100
 70
     0
  3
____ ... ____ ... ____ ... ____
 72
    65
 73
     6
 40
34.0
 49
24.0
 74
     0
 49
-3.0
 74
     0
 49
0.5
 74
     0
 49
-3.0
 74
     0
 49
0.5
 74
     0
 49
-3.0
 74
     0
  0
LTYPE
  5
3E
100
AcDbSymbolTableRecord
100
AcDbLinetypeTableRecord
  2
ACAD_ISO07W100
 70
     0
  3
. . . . . . . . . . . . . . . .
 72
    65
 73
     2
 40
3.5
 49
0.5
 74
     0
 49
-3.0
 74
     0
  0
LTYPE
  5
3F
100
AcDbSymbolTableRecord
100
AcDbLinetypeTableRecord
  2
ACAD_ISO08W100
 70
     0
  3
____ __ ____ __ ____ __ ____ __
 72
    65
 73
     4
 40
36.0
 49
24.0
 74
     0
 49
-3.0
 74
     0
 49
6.0
 74
     0
 49
-3.0
 74
     0
  0
LTYPE
  5
40
100
AcDbSymbolTableRecord
100
AcDbLinetypeTableRecord
  2
ACAD_ISO09W100
 70
     0
  3
____ __ __ ____ __ __ ____ __ _
 72
    65
 73
     6
 40
45.0
 49
24.0
 74
     0
 49
-3.0
 74
     0
 49
6.0
 74
     0
 49
-3.0
 74
     0
 49
6.0
 74
     0
 49
-3.0
 74
     0
  0
LTYPE
  5
41
100
AcDbSymbolTableRecord
100
AcDbLinetypeTableRecord
  2
ACAD_ISO10W100
 70
     0
  3
__ . __ . __ . __ . __ . __ . _
 72
    65
 73
     4
 40
18.5
 49
12.0
 74
     0
 49
-3.0
 74
     0
 49
0.5
 74
     0
 49
-3.0
 74
     0
  0
LTYPE
  5
42
100
AcDbSymbolTableRecord
100
AcDbLinetypeTableRecord
  2
ACAD_ISO11W100
 70
     0
  3
__ __ . __ __ . __ __ . __ __ .
 72
    65
 73
     6
 40
33.5
 49
12.0
 74
     0
 49
-3.0
 74
     0
 49
12.0
 74
     0
 49
-3.0
 74
     0
 49
0.5
 74
     0
 49
-3.0
 74
     0
  0
LTYPE
  5
43
100
AcDbSymbolTableRecord
100
AcDbLinetypeTableRecord
  2
ACAD_ISO12W100
 70
     0
  3
__ . . __ . . __ . . __ . . __ 
 72
    65
 73
     6
 40
22.0
 49
12.0
 74
     0
 49
-3.0
 74
     0
 49
0.5
 74
     0
 49
-3.0
 74
     0
 49
0.5
 74
     0
 49
-3.0
 74
     0
  0
LTYPE
  5
44
100
AcDbSymbolTableRecord
100
AcDbLinetypeTableRecord
  2
ACAD_ISO13W100
 70
     0
  3
__ __ . . __ __ . . __ __ . . _
 72
    65
 73
     6
 40
33.5
 49
12.0
 74
     0
 49
-3.0
 74
     0
 49
12.0
 74
     0
 49
-3.0
 74
     0
 49
0.5
 74
     0
 49
-3.0
 74
     0
  0
LTYPE
  5
45
100
AcDbSymbolTableRecord
100
AcDbLinetypeTableRecord
  2
ACAD_ISO14W100
 70
     0
  3
__ . . . __ . . . __ . . . __ .
 72
    65
 73
     6
 40
22.0
 49
12.0
 74
     0
 49
-3.0
 74
     0
 49
0.5
 74
     0
 49
-3.0
 74
     0
 49
0.5
 74
     0
 49
-3.0
 74
     0
  0
LTYPE
  5
46
100
AcDbSymbolTableRecord
100
AcDbLinetypeTableRecord
  2
ACAD_ISO15W100
 70
     0
  3
__ __ . . . __ __ . . . __ __ .
 72
    65
 73
     6
 40
33.5
 49
12.0
 74
     0
 49
-3.0
 74
     0
 49
12.0
 74
     0
 49
-3.0
 74
     0
 49
0.5
 74
     0
 49
-3.0
 74
     0
  0
ENDTAB
  0
TABLE
  2
LAYER
  5
2
100
AcDbSymbolTable
 70
     5
  0
LAYER
  5
E
100
AcDbSymbolTableRecord
100
AcDbLayerTableRecord
  2
0
 70
     0
 62
     7
  6
CONTINUOUS
  0
LAYER
  5
47
100
AcDbSymbolTableRecord
100
AcDbLayerTableRecord
  2
ARMOUR
 70
     4
 62
     7
  6
CONTINUOUS
  0
LAYER
  5
48
100
AcDbSymbolTableRecord
100
AcDbLayerTableRecord
  2
AXES
 70
     0
 62
     1
  6
CONTINUOUS
  0
LAYER
  5
49
100
AcDbSymbolTableRecord
100
AcDbLayerTableRecord
  2
COMMENTS
 70
     0
 62
    94
  6
CONTINUOUS
  0
LAYER
  5
4A
100
AcDbSymbolTableRecord
100
AcDbLayerTableRecord
  2
FILTERS
 70
     0
 62
     7
  6
CONTINUOUS
  0
ENDTAB
  0
TABLE
  2
STYLE
  5
3
100
AcDbSymbolTable
 70
     5
  0
STYLE
  5
F
100
AcDbSymbolTableRecord
100
AcDbTextStyleTableRecord
  2
STANDARD
 70
     0
 40
0.0
 41
1.0
 50
0.0
 71
     0
 42
9.999999999999998
  3
txt
  4

  0
STYLE
  5
4B
100
AcDbSymbolTableRecord
100
AcDbTextStyleTableRecord
  2
ITALIC
 70
     0
 40
0.0
 41
1.0
 50
0.0
 71
     0
 42
9.999999999999998
  3
ITALIC
  4

  0
STYLE
  5
4C
100
AcDbSymbolTableRecord
100
AcDbTextStyleTableRecord
  2
SIMPLEX
 70
     0
 40
0.0
 41
1.0
 50
0.0
 71
     0
 42
9.999999999999998
  3
SIMPLEX
  4

  0
STYLE
  5
4D
100
AcDbSymbolTableRecord
100
AcDbTextStyleTableRecord
  2
COMPLEX
 70
     0
 40
0.0
 41
1.0
 50
0.0
 71
     0
 42
9.999999999999998
  3
COMPLEX
  4

  0
STYLE
  5
1C4
100
AcDbSymbolTableRecord
100
AcDbTextStyleTableRecord
  2
ARIAL
 70
     0
 40
0.0
 41
1.0
 50
0.0
 71
     0
 42
9.999999999999998
  3
ARIAL.TTF
  4

1001
ACAD
1000
Arial
1071
        0
  0
ENDTAB
  0
TABLE
  2
VIEW
  5
6
100
AcDbSymbolTable
 70
     0
  0
ENDTAB
  0
TABLE
  2
UCS
  5
7
100
AcDbSymbolTable
 70
     0
  0
ENDTAB
  0
TABLE
  2
APPID
  5
9
100
AcDbSymbolTable
 70
     1
  0
APPID
  5
10
100
AcDbSymbolTableRecord
100
AcDbRegAppTableRecord
  2
ACAD
 70
     0
  0
ENDTAB
  0
TABLE
  2
DIMSTYLE
  5
A
100
AcDbSymbolTable
 70
     1
  0
DIMSTYLE
105
1D
100
AcDbSymbolTableRecord
100
AcDbDimStyleTableRecord
  2
STANDARD
 70
     0
  3

  4

  5

  6

  7

 40
1.0
 41
0.18
 42
0.0625
 43
0.38
 44
0.18
 45
0.0
 46
0.0
 47
0.0
 48
0.0
140
0.18
141
0.09
142
0.0
143
25.4
144
1.0
145
0.0
146
1.0
147
0.09
 71
     0
 72
     0
 73
     1
 74
     1
 75
     0
 76
     0
 77
     0
 78
     0
170
     0
171
     2
172
     0
173
     0
174
     0
175
     0
176
     0
177
     0
178
     0
270
     2
271
     4
272
     4
273
     2
274
     2
340
F
275
     0
280
     0
281
     0
282
     0
283
     1
284
     0
285
     0
286
     0
287
     3
288
     0
  0
ENDTAB
  0
TABLE
  2
BLOCK_RECORD
  5
1
100
AcDbSymbolTable
 70
     0
  0
BLOCK_RECORD
  5
18
100
AcDbSymbolTableRecord
100
AcDbBlockTableRecord
  2
*MODEL_SPACE
  0
BLOCK_RECORD
  5
15
100
AcDbSymbolTableRecord
100
AcDbBlockTableRecord
  2
*PAPER_SPACE
  0
ENDTAB
  0
ENDSEC
  0
SECTION
  2
BLOCKS
  0
BLOCK
  5
19
100
AcDbEntity
  8
0
100
AcDbBlockBegin
  2
*MODEL_SPACE
 70
     0
 10
0.0
 20
0.0
 30
0.0
  3
*MODEL_SPACE
  1

  0
ENDBLK
  5
1A
100
AcDbEntity
  8
0
100
AcDbBlockEnd
  0
BLOCK
  5
16
100
AcDbEntity
 67
     1
  8
0
100
AcDbBlockBegin
  2
*PAPER_SPACE
 70
     0
 10
0.0
 20
0.0
 30
0.0
  3
*PAPER_SPACE
  1

  0
ENDBLK
  5
17
100
AcDbEntity
 67
     1
  8
0
100
AcDbBlockEnd
  0
ENDSEC
  0
SECTION
  2
ENTITIES
  0
LINE
  5
4E
100
AcDbEntity
  8
AXES
  6
CONTINUOUS
100
AcDbLine
 10
72.74061749598711
 20
-401.7402438165334
 30
0.0
 11
72.74061749598708
 21
1194.054437235875
 31
0.0
  0
LINE
  5
4F
100
AcDbEntity
  8
AXES
  6
CONTINUOUS
100
AcDbLine
 10
388.7406174959871
 20
-405.5059917994827
 30
0.0
 11
388.7406174959871
 21
1176.32460609141
 31
0.0
  0
LINE
  5
50
100
AcDbEntity
  8
AXES
  6
CONTINUOUS
100
AcDbLine
 10
230.7406174959869
 20
1185.189521663643
 30
0.0
 11
230.7406174959872
 21
-387.1195854443786
 31
0.0
  0
LINE
  5
51
100
AcDbEntity
  8
AXES
  6
CONTINUOUS
100
AcDbLine
 10
500.4314222372628
 20
510.3629866773678
 30
0.0
 11
970.2463080888353
 21
510.3629866773678
 31
0.0
  0
LINE
  5
52
100
AcDbEntity
  8
AXES
  6
CONTINUOUS
100
AcDbLine
 10
1091.941559849781
 20
61.40247175061285
 30
0.0
 11
1091.941559849781
 21
668.8179931536957
 31
0.0
  0
LINE
  5
53
100
AcDbEntity
  8
FILTERS
  6
CONTINUOUS
 62
     7
100
AcDbLine
 10
1267.941559849782
 20
245.3629866773675
 30
0.0
 11
1267.94155984978
 21
280.3629866773675
 31
0.0
  0
LINE
  5
54
100
AcDbEntity
  8
FILTERS
  6
CONTINUOUS
 62
     7
100
AcDbLine
 10
1547.941559849781
 20
245.3629866773675
 30
0.0
 11
1547.94155984978
 21
280.3629866773675
 31
0.0
  0
LINE
  5
55
100
AcDbEntity
  8
FILTERS
  6
CONTINUOUS
 62
     7
100
AcDbLine
 10
1039.441559849781
 20
130.3629866773676
 30
0.0
 11
1039.441559849781
 21
145.3629866773675
 31
0.0
  0
LINE
  5
56
100
AcDbEntity
  8
FILTERS
  6
CONTINUOUS
 62
     7
100
AcDbLine
 10
1144.441559849781
 20
130.3629866773675
 30
0.0
 11
1144.441559849781
 21
145.3629866773675
 31
0.0
  0
LINE
  5
57
100
AcDbEntity
  8
FILTERS
  6
CONTINUOUS
 62
     7
100
AcDbLine
 10
1039.441559849781
 20
145.3629866773675
 30
0.0
 11
1144.441559849781
 21
145.3629866773675
 31
0.0
  0
LINE
  5
58
100
AcDbEntity
  8
AXES
  6
CONTINUOUS
100
AcDbLine
 10
1407.941559849781
 20
54.19712748759323
 30
0.0
 11
1407.941559849781
 21
666.8066834801757
 31
0.0
  0
LINE
  5
59
100
AcDbEntity
  8
FILTERS
  6
CONTINUOUS
 62
     7
100
AcDbLine
 10
951.9415598497815
 20
245.3629866773675
 30
0.0
 11
951.9415598497792
 21
280.3629866773675
 31
0.0
  0
LINE
  5
5A
100
AcDbEntity
  8
FILTERS
  6
CONTINUOUS
 62
     7
100
AcDbLine
 10
1231.941559849781
 20
245.3629866773675
 30
0.0
 11
1231.941559849781
 21
280.3629866773675
 31
0.0
  0
LINE
  5
5B
100
AcDbEntity
  8
FILTERS
  6
CONTINUOUS
 62
     7
100
AcDbLine
 10
1574.941559849781
 20
280.3629866773675
 30
0.0
 11
924.9415598497813
 21
280.3629866773675
 31
0.0
  0
LINE
  5
5C
100
AcDbEntity
  8
AXES
  6
CONTINUOUS
100
AcDbLine
 10
1249.941559849781
 20
660.7727544596152
 30
0.0
 11
1249.941559849782
 21
165.3820692461748
 31
0.0
  0
LINE
  5
5D
100
AcDbEntity
  8
FILTERS
  6
CONTINUOUS
100
AcDbLine
 10
1547.941559849781
 20
245.3629866773675
 30
0.0
 11
1460.441559849781
 21
145.3629866773675
 31
0.0
  0
LINE
  5
5E
100
AcDbEntity
  8
FILTERS
  6
CONTINUOUS
100
AcDbLine
 10
1267.941559849781
 20
245.3629866773675
 30
0.0
 11
1355.441559849781
 21
145.3629866773675
 31
0.0
  0
LINE
  5
5F
100
AcDbEntity
  8
FILTERS
  6
CONTINUOUS
100
AcDbLine
 10
1231.941559849781
 20
245.3629866773675
 30
0.0
 11
1144.441559849781
 21
145.3629866773675
 31
0.0
  0
LINE
  5
60
100
AcDbEntity
  8
FILTERS
  6
CONTINUOUS
100
AcDbLine
 10
951.9415598497817
 20
245.3629866773675
 30
0.0
 11
1039.441559849781
 21
145.3629866773675
 31
0.0
  0
LINE
  5
61
100
AcDbEntity
  8
FILTERS
  6
CONTINUOUS
100
AcDbLine
 10
931.9415598497815
 20
451.362986677368
 30
0.0
 11
896.9415598497812
 21
451.3629866773677
 31
0.0
  0
LINE
  5
62
100
AcDbEntity
  8
FILTERS
  6
CONTINUOUS
100
AcDbLine
 10
931.9415598497819
 20
571.3629866773687
 30
0.0
 11
896.9415598497823
 21
571.3629866773675
 31
0.0
  0
LINE
  5
63
100
AcDbEntity
  8
FILTERS
  6
CONTINUOUS
100
AcDbLine
 10
931.9415598497812
 20
295.3629866773669
 30
0.0
 11
896.9415598497812
 21
295.362986677368
 31
0.0
  0
LINE
  5
64
100
AcDbEntity
  8
FILTERS
  6
CONTINUOUS
100
AcDbLine
 10
931.9415598497815
 20
415.3629866773672
 30
0.0
 11
896.9415598497823
 21
415.3629866773679
 31
0.0
  0
LINE
  5
65
100
AcDbEntity
  8
FILTERS
  6
CONTINUOUS
 62
     7
100
AcDbLine
 10
1147.441559849782
 20
122.3629866773676
 30
0.0
 11
1036.44155984978
 21
122.3629866773675
 31
0.0
  0
LINE
  5
66
100
AcDbEntity
  8
FILTERS
  6
CONTINUOUS
 62
     7
100
AcDbLine
 10
1036.44155984978
 20
122.3629866773675
 30
0.0
 11
1036.44155984978
 21
130.3629866773676
 31
0.0
  0
LINE
  5
67
100
AcDbEntity
  8
FILTERS
  6
CONTINUOUS
 62
     7
100
AcDbLine
 10
1147.441559849782
 20
122.3629866773675
 30
0.0
 11
1147.441559849781
 21
130.3629866773675
 31
0.0
  0
LINE
  5
68
100
AcDbEntity
  8
FILTERS
  6
CONTINUOUS
 62
     7
100
AcDbLine
 10
1147.441559849782
 20
130.3629866773674
 30
0.0
 11
1036.44155984978
 21
130.3629866773675
 31
0.0
  0
LINE
  5
69
100
AcDbEntity
  8
FILTERS
  6
CONTINUOUS
 62
     7
100
AcDbLine
 10
1574.941559849781
 20
580.3629866773676
 30
0.0
 11
924.9415598497813
 21
580.3629866773674
 31
0.0
  0
LINE
  5
6A
100
AcDbEntity
  8
FILTERS
  6
CONTINUOUS
100
AcDbLine
 10
924.9415598497813
 20
440.3629866773674
 30
0.0
 11
931.9415598497814
 21
442.3629866773675
 31
0.0
  0
LINE
  5
6B
100
AcDbEntity
  8
FILTERS
  6
CONTINUOUS
100
AcDbLine
 10
924.9415598497813
 20
440.3629866773674
 30
0.0
 11
931.9415598497814
 21
438.3629866773675
 31
0.0
  0
LINE
  5
6C
100
AcDbEntity
  8
FILTERS
  6
CONTINUOUS
100
AcDbLine
 10
1574.941559849781
 20
440.3629866773676
 30
0.0
 11
1567.941559849781
 21
442.3629866773675
 31
0.0
  0
LINE
  5
6D
100
AcDbEntity
  8
FILTERS
  6
CONTINUOUS
100
AcDbLine
 10
1574.941559849781
 20
440.3629866773676
 30
0.0
 11
1567.941559849781
 21
438.3629866773675
 31
0.0
  0
LINE
  5
6E
100
AcDbEntity
  8
FILTERS
  6
CONTINUOUS
 62
     7
100
AcDbLine
 10
1567.941559849781
 20
282.3629866773676
 30
0.0
 11
1567.941559849781
 21
438.3629866773675
 31
0.0
  0
LINE
  5
6F
100
AcDbEntity
  8
FILTERS
  6
CONTINUOUS
 62
     7
100
AcDbLine
 10
1567.941559849781
 20
442.3629866773675
 30
0.0
 11
1567.941559849782
 21
578.3629866773675
 31
0.0
  0
LINE
  5
70
100
AcDbEntity
  8
FILTERS
  6
CONTINUOUS
 62
     7
100
AcDbLine
 10
1567.941559849781
 20
282.3629866773677
 30
0.0
 11
931.9415598497814
 21
282.3629866773677
 31
0.0
  0
LINE
  5
71
100
AcDbEntity
  8
FILTERS
  6
CONTINUOUS
100
AcDbLine
 10
1574.941559849781
 20
280.3629866773677
 30
0.0
 11
1567.941559849781
 21
282.3629866773677
 31
0.0
  0
LINE
  5
72
100
AcDbEntity
  8
FILTERS
  6
CONTINUOUS
100
AcDbLine
 10
924.9415598497813
 20
280.3629866773675
 30
0.0
 11
931.9415598497814
 21
282.3629866773677
 31
0.0
  0
LINE
  5
73
100
AcDbEntity
  8
FILTERS
  6
CONTINUOUS
100
AcDbLine
 10
1574.941559849781
 20
580.3629866773674
 30
0.0
 11
1567.941559849781
 21
578.3629866773676
 31
0.0
  0
LINE
  5
74
100
AcDbEntity
  8
FILTERS
  6
CONTINUOUS
 62
     7
100
AcDbLine
 10
1567.941559849781
 20
578.3629866773676
 30
0.0
 11
931.9415598497814
 21
578.3629866773676
 31
0.0
  0
LINE
  5
75
100
AcDbEntity
  8
FILTERS
  6
CONTINUOUS
100
AcDbLine
 10
924.9415598497813
 20
580.3629866773674
 30
0.0
 11
931.9415598497814
 21
578.3629866773676
 31
0.0
  0
LINE
  5
76
100
AcDbEntity
  8
FILTERS
  6
CONTINUOUS
100
AcDbLine
 10
72.74061749598695
 20
1097.572870004736
 30
0.0
 11
388.7406174959869
 21
1097.572870004736
 31
0.0
  0
LINE
  5
77
100
AcDbEntity
  8
FILTERS
  6
CONTINUOUS
100
AcDbLine
 10
72.74061749598695
 20
763.5728700047368
 30
0.0
 11
388.7406174959869
 21
763.5728700047368
 31
0.0
  0
ARC
  5
78
100
AcDbEntity
  8
FILTERS
  6
CONTINUOUS
100
AcDbCircle
 10
388.7406174959869
 20
930.5728700047367
 30
0.0
 40
166.9999999999999
100
AcDbArc
 50
270.0
 51
90.00000000000007
  0
ARC
  5
79
100
AcDbEntity
  8
FILTERS
  6
CONTINUOUS
100
AcDbCircle
 10
72.74061749598695
 20
930.5728700047367
 30
0.0
 40
166.9999999999999
100
AcDbArc
 50
90.00000000000005
 51
270.0
  0
LINE
  5
7A
100
AcDbEntity
  8
FILTERS
  6
CONTINUOUS
 62
     7
100
AcDbLine
 10
931.9415598497821
 20
442.3629866773675
 30
0.0
 11
931.9415598497672
 21
451.3629866773697
 31
0.0
  0
LINE
  5
7B
100
AcDbEntity
  8
FILTERS
  6
CONTINUOUS
 62
     7
100
AcDbLine
 10
931.9415598497666
 20
571.3629866773691
 30
0.0
 11
931.9415598497714
 21
578.3629866773674
 31
0.0
  0
ARC
  5
7C
100
AcDbEntity
  8
FILTERS
  6
CONTINUOUS
100
AcDbCircle
 10
783.6175901078741
 20
511.3629866773687
 30
0.0
 40
159.9999999999949
100
AcDbArc
 50
337.9756871629567
 51
22.02431283704283
  0
ARC
  5
7D
100
AcDbEntity
  8
FILTERS
  6
CONTINUOUS
100
AcDbCircle
 10
783.6175901078741
 20
355.3629866773686
 30
0.0
 40
159.9999999999949
100
AcDbArc
 50
337.9756871629567
 51
22.02431283704283
  0
LINE
  5
7E
100
AcDbEntity
  8
FILTERS
  6
CONTINUOUS
 62
     7
100
AcDbLine
 10
931.9415598497798
 20
282.3629866773676
 30
0.0
 11
931.9415598497826
 21
295.362986677367
 31
0.0
  0
LINE
  5
7F
100
AcDbEntity
  8
FILTERS
  6
CONTINUOUS
 62
     7
100
AcDbLine
 10
931.9415598497803
 20
415.3629866773698
 30
0.0
 11
931.9415598497865
 21
438.3629866773675
 31
0.0
  0
LINE
  5
80
100
AcDbEntity
  8
FILTERS
  6
CONTINUOUS
 62
     7
100
AcDbLine
 10
1355.441559849781
 20
130.3629866773676
 30
0.0
 11
1355.441559849781
 21
145.3629866773675
 31
0.0
  0
LINE
  5
81
100
AcDbEntity
  8
FILTERS
  6
CONTINUOUS
 62
     7
100
AcDbLine
 10
1460.441559849782
 20
130.3629866773675
 30
0.0
 11
1460.441559849781
 21
145.3629866773675
 31
0.0
  0
LINE
  5
82
100
AcDbEntity
  8
FILTERS
  6
CONTINUOUS
 62
     7
100
AcDbLine
 10
1355.441559849781
 20
145.3629866773675
 30
0.0
 11
1460.441559849781
 21
145.3629866773675
 31
0.0
  0
LINE
  5
83
100
AcDbEntity
  8
FILTERS
  6
CONTINUOUS
 62
     7
100
AcDbLine
 10
1463.441559849782
 20
122.3629866773676
 30
0.0
 11
1352.441559849781
 21
122.3629866773675
 31
0.0
  0
LINE
  5
84
100
AcDbEntity
  8
FILTERS
  6
CONTINUOUS
 62
     7
100
AcDbLine
 10
1352.441559849781
 20
122.3629866773675
 30
0.0
 11
1352.441559849781
 21
130.3629866773676
 31
0.0
  0
LINE
  5
85
100
AcDbEntity
  8
FILTERS
  6
CONTINUOUS
 62
     7
100
AcDbLine
 10
1463.441559849782
 20
122.3629866773675
 30
0.0
 11
1463.441559849781
 21
130.3629866773675
 31
0.0
  0
LINE
  5
86
100
AcDbEntity
  8
FILTERS
  6
CONTINUOUS
 62
     7
100
AcDbLine
 10
1463.441559849782
 20
130.3629866773674
 30
0.0
 11
1352.44155984978
 21
130.3629866773676
 31
0.0
  0
LINE
  5
87
100
AcDbEntity
  8
AXES
  6
CONTINUOUS
100
AcDbLine
 10
749.2357145461445
 20
272.5464464064443
 30
0.0
 11
749.2357145461445
 21
595.9120256592951
 31
0.0
  0
CIRCLE
  5
88
100
AcDbEntity
  8
FILTERS
  6
CONTINUOUS
100
AcDbCircle
 10
804.2357145461446
 20
410.3629866773676
 30
0.0
 40
6.0
  0
CIRCLE
  5
89
100
AcDbEntity
  8
FILTERS
  6
CONTINUOUS
100
AcDbCircle
 10
694.2357145461444
 20
410.3629866773676
 30
0.0
 40
6.0
  0
CIRCLE
  5
8A
100
AcDbEntity
  8
FILTERS
  6
CONTINUOUS
100
AcDbCircle
 10
804.2357145461446
 20
300.3629866773673
 30
0.0
 40
6.0
  0
CIRCLE
  5
8B
100
AcDbEntity
  8
FILTERS
  6
CONTINUOUS
100
AcDbCircle
 10
694.2357145461444
 20
300.3629866773673
 30
0.0
 40
6.0
  0
LWPOLYLINE
  5
8C
100
AcDbEntity
  8
FILTERS
  6
CONTINUOUS
100
AcDbPolyline
 90
        8
 70
     1
 43
0.0
 10
681.7357145461454
 20
297.8629866773674
 42
0.4142135623731162
 10
691.7357145461453
 20
287.8629866773674
 10
806.7357145461445
 20
287.8629866773669
 42
0.41421356237311
 10
816.7357145461442
 20
297.862986677367
 10
816.7357145461439
 20
412.8629866773669
 42
0.4142135623731137
 10
806.7357145461441
 20
422.8629866773668
 10
691.7357145461441
 20
422.8629866773673
 42
0.4142135623731137
 10
681.7357145461443
 20
412.8629866773674
  0
CIRCLE
  5
8D
100
AcDbEntity
  8
FILTERS
  6
CONTINUOUS
100
AcDbCircle
 10
804.2357145461446
 20
565.3629866773679
 30
0.0
 40
6.0
  0
CIRCLE
  5
8E
100
AcDbEntity
  8
FILTERS
  6
CONTINUOUS
100
AcDbCircle
 10
694.2357145461444
 20
565.3629866773679
 30
0.0
 40
6.0
  0
CIRCLE
  5
8F
100
AcDbEntity
  8
FILTERS
  6
CONTINUOUS
100
AcDbCircle
 10
804.2357145461446
 20
455.3629866773676
 30
0.0
 40
6.0
  0
CIRCLE
  5
90
100
AcDbEntity
  8
FILTERS
  6
CONTINUOUS
100
AcDbCircle
 10
694.2357145461444
 20
455.3629866773676
 30
0.0
 40
6.0
  0
LWPOLYLINE
  5
91
100
AcDbEntity
  8
FILTERS
  6
CONTINUOUS
100
AcDbPolyline
 90
        8
 70
     1
 43
0.0
 10
681.7357145461454
 20
452.8629866773677
 42
0.4142135623731162
 10
691.7357145461453
 20
442.8629866773676
 10
806.7357145461445
 20
442.8629866773673
 42
0.41421356237311
 10
816.7357145461442
 20
452.8629866773673
 10
816.7357145461439
 20
567.8629866773672
 42
0.4142135623731137
 10
806.7357145461441
 20
577.8629866773671
 10
691.7357145461441
 20
577.8629866773676
 42
0.4142135623731137
 10
681.7357145461443
 20
567.8629866773677
  0
LINE
  5
92
100
AcDbEntity
  8
FILTERS
  6
CONTINUOUS
 62
     7
100
AcDbLine
 10
891.941559849782
 20
443.862986677373
 30
0.0
 11
891.9415598497804
 21
578.8629866773423
 31
0.0
  0
LINE
  5
93
100
AcDbEntity
  8
FILTERS
  6
CONTINUOUS
 62
     7
100
AcDbLine
 10
896.9415598497816
 20
443.8629866773732
 30
0.0
 11
896.9415598497832
 21
578.8629866773423
 31
0.0
  0
LINE
  5
94
100
AcDbEntity
  8
FILTERS
  6
CONTINUOUS
100
AcDbLine
 10
891.9415598497815
 20
578.8629866773679
 30
0.0
 11
896.941559849783
 21
578.8629866773679
 31
0.0
  0
LINE
  5
95
100
AcDbEntity
  8
FILTERS
  6
CONTINUOUS
100
AcDbLine
 10
891.9415598497812
 20
443.862986677368
 30
0.0
 11
896.9415598497812
 21
443.8629866773681
 31
0.0
  0
LINE
  5
96
100
AcDbEntity
  8
FILTERS
  6
CONTINUOUS
 62
     7
100
AcDbLine
 10
891.941559849782
 20
287.8629866773728
 30
0.0
 11
891.9415598497806
 21
422.8629866773421
 31
0.0
  0
LINE
  5
97
100
AcDbEntity
  8
FILTERS
  6
CONTINUOUS
 62
     7
100
AcDbLine
 10
896.9415598497818
 20
287.862986677373
 30
0.0
 11
896.9415598497834
 21
422.8629866773421
 31
0.0
  0
LINE
  5
98
100
AcDbEntity
  8
FILTERS
  6
CONTINUOUS
100
AcDbLine
 10
891.9415598497815
 20
422.8629866773677
 30
0.0
 11
896.9415598497832
 21
422.8629866773677
 31
0.0
  0
LINE
  5
99
100
AcDbEntity
  8
FILTERS
  6
CONTINUOUS
100
AcDbLine
 10
891.9415598497815
 20
287.8629866773678
 30
0.0
 11
896.9415598497814
 21
287.862986677368
 31
0.0
  0
CIRCLE
  5
9A
100
AcDbEntity
  8
FILTERS
  6
CONTINUOUS
100
AcDbCircle
 10
749.2357145461449
 20
355.3629866773674
 30
0.0
 40
58.49999999999999
  0
CIRCLE
  5
9B
100
AcDbEntity
  8
FILTERS
  6
CONTINUOUS
100
AcDbCircle
 10
749.2357145461449
 20
510.3629866773676
 30
0.0
 40
58.49999999999999
  0
LINE
  5
9C
100
AcDbEntity
  8
AXES
  6
CONTINUOUS
100
AcDbLine
 10
670.5604567037729
 20
-162.3943926676365
 30
0.0
 11
-123.1971943375054
 21
-162.3943926676365
 31
0.0
  0
CIRCLE
  5
9D
100
AcDbEntity
  8
FILTERS
100
AcDbCircle
 10
72.74061749598704
 20
-162.3943926676365
 30
0.0
 40
140.0
  0
LINE
  5
9E
100
AcDbEntity
  8
FILTERS
  6
CONTINUOUS
 62
     7
100
AcDbLine
 10
588.7406174959866
 20
-229.8943926676315
 30
0.0
 11
588.740617495988
 21
-94.89439266766227
 31
0.0
  0
LINE
  5
9F
100
AcDbEntity
  8
FILTERS
  6
CONTINUOUS
 62
     7
100
AcDbLine
 10
583.7406174959871
 20
-229.8943926676313
 30
0.0
 11
583.7406174959855
 21
-94.89439266766227
 31
0.0
  0
LINE
  5
A0
100
AcDbEntity
  8
FILTERS
  6
CONTINUOUS
100
AcDbLine
 10
588.7406174959871
 20
-94.89439266763664
 30
0.0
 11
583.7406174959856
 21
-94.89439266763664
 31
0.0
  0
LINE
  5
A1
100
AcDbEntity
  8
FILTERS
  6
CONTINUOUS
100
AcDbLine
 10
588.7406174959874
 20
-229.8943926676365
 30
0.0
 11
583.7406174959873
 21
-229.8943926676364
 31
0.0
  0
LINE
  5
A2
100
AcDbEntity
  8
FILTERS
  6
CONTINUOUS
100
AcDbLine
 10
583.7406174959876
 20
-222.3943926676364
 30
0.0
 11
545.685539297759
 21
-219.4670789600801
 31
0.0
  0
LINE
  5
A3
100
AcDbEntity
  8
FILTERS
  6
CONTINUOUS
100
AcDbLine
 10
583.7406174959876
 20
-102.3943926676366
 30
0.0
 11
545.685539297759
 21
-105.3217063751928
 31
0.0
  0
CIRCLE
  5
A4
100
AcDbEntity
  8
FILTERS
100
AcDbCircle
 10
72.74061749598704
 20
-162.3943926676365
 30
0.0
 40
55.5
  0
LWPOLYLINE
  5
A5
100
AcDbEntity
  8
FILTERS
100
AcDbPolyline
 90
        6
 70
     1
 43
0.0
 10
175.2406174959857
 20
12.60560733236337
 42
-0.4142135623731013
 10
177.2406174959856
 20
14.60560733236337
 10
284.2406174959885
 20
14.60560733236301
 42
-0.4142135623731013
 10
286.2406174959886
 20
12.60560733236301
 10
286.2406174959857
 20
4.605607332363296
 10
175.2406174959857
 20
4.605607332363296
  0
ARC
  5
A6
100
AcDbEntity
  8
FILTERS
100
AcDbCircle
 10
230.7406174959855
 20
-490.6443926676488
 30
0.0
 40
507.2500000000121
100
AcDbArc
 50
84.91039124037376
 51
95.08960875962591
  0
LINE
  5
A7
100
AcDbEntity
  8
FILTERS
100
AcDbLine
 10
500.7406174959867
 20
-338.3943926676369
 30
0.0
 11
451.3147362060344
 21
-338.3943926676368
 31
0.0
  0
LINE
  5
A8
100
AcDbEntity
  8
AXES
  6
CONTINUOUS
100
AcDbLine
 10
480.7406174959871
 20
-353.5666864502792
 30
0.0
 11
480.7406174959868
 21
-327.2660779255705
 31
0.0
  0
LINE
  5
A9
100
AcDbEntity
  8
FILTERS
  6
CONTINUOUS
100
AcDbLine
 10
500.7406174959861
 20
-342.3943926676376
 30
0.0
 11
500.7406174959871
 21
-338.3943926676366
 31
0.0
  0
LINE
  5
AA
100
AcDbEntity
  8
FILTERS
100
AcDbLine
 10
500.7406174959867
 20
-342.3943926676369
 30
0.0
 11
451.3147362060344
 21
-342.3943926676368
 31
0.0
  0
LINE
  5
AB
100
AcDbEntity
  8
FILTERS
100
AcDbLine
 10
449.5826853984657
 20
-337.3943926676368
 30
0.0
 11
428.6852574596599
 21
-301.1989857301156
 31
0.0
  0
LINE
  5
AC
100
AcDbEntity
  8
FILTERS
100
AcDbLine
 10
446.1185837833277
 20
-339.3943926676367
 30
0.0
 11
425.2211558445232
 21
-303.1989857301156
 31
0.0
  0
ARC
  5
AD
100
AcDbEntity
  8
FILTERS
100
AcDbCircle
 10
451.3147362060344
 20
-336.3943926676369
 30
0.0
 40
1.999999999999999
100
AcDbArc
 50
210.0000000000002
 51
270.0
  0
ARC
  5
AE
100
AcDbEntity
  8
FILTERS
100
AcDbCircle
 10
451.3147362060344
 20
-336.3943926676369
 30
0.0
 40
6.0
100
AcDbArc
 50
209.9999999999995
 51
270.0
  0
ARC
  5
AF
100
AcDbEntity
  8
FILTERS
100
AcDbCircle
 10
388.7406174959871
 20
-162.3943926676365
 30
0.0
 40
143.9999999999999
100
AcDbArc
 50
270.0
 51
283.7687257417103
  0
ARC
  5
B0
100
AcDbEntity
  8
FILTERS
100
AcDbCircle
 10
423.4891050369545
 20
-304.1989857301154
 30
0.0
 40
1.999999999999999
100
AcDbArc
 50
30.00000000000017
 51
103.7687257417103
  0
LINE
  5
B1
100
AcDbEntity
  8
FILTERS
100
AcDbLine
 10
388.7406174959873
 20
-306.3943926676365
 30
0.0
 11
388.7406174959873
 21
-302.3943926676365
 31
0.0
  0
ARC
  5
B2
100
AcDbEntity
  8
FILTERS
100
AcDbCircle
 10
423.4891050369533
 20
-304.1989857301157
 30
0.0
 40
6.0
100
AcDbArc
 50
30.00000000000007
 51
103.7687257417099
  0
CIRCLE
  5
B3
100
AcDbEntity
  8
FILTERS
100
AcDbCircle
 10
388.7406174959871
 20
-162.3943926676365
 30
0.0
 40
140.0
  0
LINE
  5
B4
100
AcDbEntity
  8
FILTERS
100
AcDbLine
 10
-39.25938250401239
 20
-338.3943926676369
 30
0.0
 11
10.16649878593995
 21
-338.3943926676368
 31
0.0
  0
LINE
  5
B5
100
AcDbEntity
  8
AXES
  6
CONTINUOUS
100
AcDbLine
 10
-19.25938250401278
 20
-353.5666864502792
 30
0.0
 11
-19.25938250401243
 21
-327.2660779255705
 31
0.0
  0
LINE
  5
B6
100
AcDbEntity
  8
FILTERS
  6
CONTINUOUS
100
AcDbLine
 10
-39.25938250401166
 20
-342.3943926676376
 30
0.0
 11
-39.25938250401275
 21
-338.3943926676366
 31
0.0
  0
LINE
  5
B7
100
AcDbEntity
  8
FILTERS
100
AcDbLine
 10
-39.25938250401239
 20
-342.3943926676369
 30
0.0
 11
10.16649878593995
 21
-342.3943926676368
 31
0.0
  0
LINE
  5
B8
100
AcDbEntity
  8
FILTERS
100
AcDbLine
 10
11.89854959350872
 20
-337.3943926676368
 30
0.0
 11
32.79597753231449
 21
-301.1989857301156
 31
0.0
  0
LINE
  5
B9
100
AcDbEntity
  8
FILTERS
100
AcDbLine
 10
15.36265120864664
 20
-339.3943926676367
 30
0.0
 11
36.26007914745113
 21
-303.1989857301156
 31
0.0
  0
ARC
  5
BA
100
AcDbEntity
  8
FILTERS
100
AcDbCircle
 10
10.16649878593995
 20
-336.3943926676369
 30
0.0
 40
1.999999999999999
100
AcDbArc
 50
269.9999999999999
 51
329.9999999999997
  0
ARC
  5
BB
100
AcDbEntity
  8
FILTERS
100
AcDbCircle
 10
10.16649878593995
 20
-336.3943926676369
 30
0.0
 40
6.0
100
AcDbArc
 50
269.9999999999999
 51
330.0000000000004
  0
ARC
  5
BC
100
AcDbEntity
  8
FILTERS
100
AcDbCircle
 10
72.74061749598722
 20
-162.3943926676365
 30
0.0
 40
143.9999999999999
100
AcDbArc
 50
256.2312742582895
 51
269.9999999999999
  0
ARC
  5
BD
100
AcDbEntity
  8
FILTERS
100
AcDbCircle
 10
37.99212995501991
 20
-304.1989857301154
 30
0.0
 40
1.999999999999999
100
AcDbArc
 50
76.23127425828963
 51
149.9999999999998
  0
LINE
  5
BE
100
AcDbEntity
  8
FILTERS
100
AcDbLine
 10
72.74061749598704
 20
-306.3943926676365
 30
0.0
 11
72.74061749598704
 21
-302.3943926676365
 31
0.0
  0
ARC
  5
BF
100
AcDbEntity
  8
FILTERS
100
AcDbCircle
 10
37.992129955021
 20
-304.1989857301157
 30
0.0
 40
6.0
100
AcDbArc
 50
76.23127425829004
 51
149.9999999999999
  0
CIRCLE
  5
C0
100
AcDbEntity
  8
FILTERS
100
AcDbCircle
 10
388.7406174959871
 20
-162.3943926676365
 30
0.0
 40
55.5
  0
LINE
  5
C1
100
AcDbEntity
  8
AXES
  6
CONTINUOUS
100
AcDbLine
 10
671.6881771336257
 20
930.5728700047371
 30
0.0
 11
-123.1971943375054
 21
930.5728700047371
 31
0.0
  0
LINE
  5
C2
100
AcDbEntity
  8
FILTERS
  6
CONTINUOUS
100
AcDbLine
 10
583.7406174959864
 20
990.5728700047378
 30
0.0
 11
544.5899036669537
 21
990.5728700047378
 31
0.0
  0
LINE
  5
C3
100
AcDbEntity
  8
FILTERS
  6
CONTINUOUS
100
AcDbLine
 10
583.7406174959873
 20
870.5728700047368
 30
0.0
 11
544.5899036669541
 21
870.5728700047368
 31
0.0
  0
LINE
  5
C4
100
AcDbEntity
  8
FILTERS
  6
CONTINUOUS
 62
     7
100
AcDbLine
 10
588.7406174959871
 20
863.0728700047423
 30
0.0
 11
588.7406174959886
 21
998.0728700047116
 31
0.0
  0
LINE
  5
C5
100
AcDbEntity
  8
FILTERS
  6
CONTINUOUS
 62
     7
100
AcDbLine
 10
583.7406174959876
 20
863.0728700047423
 30
0.0
 11
583.7406174959859
 21
998.0728700047116
 31
0.0
  0
LINE
  5
C6
100
AcDbEntity
  8
FILTERS
  6
CONTINUOUS
100
AcDbLine
 10
588.7406174959877
 20
998.0728700047373
 30
0.0
 11
583.7406174959861
 21
998.0728700047373
 31
0.0
  0
LINE
  5
C7
100
AcDbEntity
  8
FILTERS
  6
CONTINUOUS
100
AcDbLine
 10
588.7406174959878
 20
863.0728700047372
 30
0.0
 11
583.740617495988
 21
863.0728700047372
 31
0.0
  0
LWPOLYLINE
  5
C8
100
AcDbEntity
  8
FILTERS
100
AcDbPolyline
 90
        6
 70
     1
 43
0.0
 10
175.2406174959855
 20
755.572870004737
 42
0.4142135623731013
 10
177.2406174959854
 20
753.572870004737
 10
284.2406174959883
 20
753.5728700047375
 42
0.4142135623731013
 10
286.2406174959884
 20
755.5728700047374
 10
286.2406174959857
 20
763.5728700047372
 10
175.2406174959857
 20
763.5728700047372
  0
ARC
  5
C9
100
AcDbEntity
  8
FILTERS
100
AcDbCircle
 10
230.7406174959854
 20
1258.822870004749
 30
0.0
 40
507.2500000000121
100
AcDbArc
 50
264.9103912403741
 51
275.0896087596262
  0
LINE
  5
CA
100
AcDbEntity
  8
FILTERS
100
AcDbLine
 10
382.9671148040909
 20
1103.572870004735
 30
0.0
 11
382.9671148040919
 21
1097.572870004736
 31
0.0
  0
LINE
  5
CB
100
AcDbEntity
  8
FILTERS
100
AcDbLine
 10
394.5141201878833
 20
1103.572870004735
 30
0.0
 11
394.5141201878834
 21
1097.473039766983
 31
0.0
  0
LINE
  5
CC
100
AcDbEntity
  8
FILTERS
100
AcDbLine
 10
406.2406174959848
 20
1157.822643144296
 30
0.0
 11
406.2406174959858
 21
1096.653422749481
 31
0.0
  0
LINE
  5
CD
100
AcDbEntity
  8
FILTERS
100
AcDbLine
 10
371.2406174959866
 20
1157.822643144296
 30
0.0
 11
371.2406174959878
 21
1097.572870004736
 31
0.0
  0
LINE
  5
CE
100
AcDbEntity
  8
FILTERS
100
AcDbLine
 10
371.2406174959866
 20
1157.822643144296
 30
0.0
 11
406.2406174959848
 21
1157.822643144296
 31
0.0
  0
CIRCLE
  5
CF
100
AcDbEntity
  8
FILTERS
100
AcDbCircle
 10
388.740617495987
 20
1144.072870004739
 30
0.0
 40
7.499999999999999
  0
LINE
  5
D0
100
AcDbEntity
  8
FILTERS
100
AcDbLine
 10
394.740617495987
 20
1103.572870004736
 30
0.0
 11
394.740617495987
 21
1111.839720143186
 31
0.0
  0
LINE
  5
D1
100
AcDbEntity
  8
FILTERS
100
AcDbLine
 10
382.740617495987
 20
1103.572870004736
 30
0.0
 11
382.740617495987
 21
1111.839720143186
 31
0.0
  0
ARC
  5
D2
100
AcDbEntity
  8
FILTERS
100
AcDbCircle
 10
388.7406174959869
 20
1102.320580370732
 30
0.0
 40
11.2522896340041
100
AcDbArc
 50
57.77639770203945
 51
122.2236022979609
  0
LINE
  5
D3
100
AcDbEntity
  8
FILTERS
  6
CONTINUOUS
100
AcDbLine
 10
72.74061749598722
 20
4.605607332363336
 30
0.0
 11
388.7406174959871
 21
4.605607332363336
 31
0.0
  0
LINE
  5
D4
100
AcDbEntity
  8
FILTERS
  6
CONTINUOUS
100
AcDbLine
 10
72.74061749598722
 20
-329.3943926676365
 30
0.0
 11
388.7406174959871
 21
-329.3943926676365
 31
0.0
  0
ARC
  5
D5
100
AcDbEntity
  8
FILTERS
  6
CONTINUOUS
100
AcDbCircle
 10
388.7406174959871
 20
-162.3943926676366
 30
0.0
 40
166.9999999999999
100
AcDbArc
 50
270.0
 51
286.5621450050029
  0
ARC
  5
D6
100
AcDbEntity
  8
FILTERS
  6
CONTINUOUS
100
AcDbCircle
 10
388.7406174959871
 20
-162.3943926676366
 30
0.0
 40
166.9999999999999
100
AcDbArc
 50
287.9691420395285
 51
90.00000000000007
  0
ARC
  5
D7
100
AcDbEntity
  8
FILTERS
  6
CONTINUOUS
100
AcDbCircle
 10
72.74061749598722
 20
-162.3943926676366
 30
0.0
 40
166.9999999999999
100
AcDbArc
 50
90.00000000000005
 51
252.0308579604714
  0
ARC
  5
D8
100
AcDbEntity
  8
FILTERS
  6
CONTINUOUS
100
AcDbCircle
 10
72.74061749598722
 20
-162.3943926676366
 30
0.0
 40
166.9999999999999
100
AcDbArc
 50
253.437854994997
 51
270.0
  0
LINE
  5
D9
100
AcDbEntity
  8
FILTERS
100
AcDbLine
 10
400.2876228797794
 20
1103.572870004736
 30
0.0
 11
400.2876228797794
 21
1097.17319013248
 31
0.0
  0
LINE
  5
DA
100
AcDbEntity
  8
FILTERS
100
AcDbLine
 10
377.1936121121913
 20
1097.572870004736
 30
0.0
 11
377.1936121121944
 21
1103.572870004736
 31
0.0
  0
LINE
  5
DB
100
AcDbEntity
  8
FILTERS
100
AcDbLine
 10
377.1936121121944
 20
1103.572870004736
 30
0.0
 11
400.2876228797794
 21
1103.572870004736
 31
0.0
  0
LINE
  5
DC
100
AcDbEntity
  8
FILTERS
100
AcDbLine
 10
78.51412018788289
 20
1103.572870004735
 30
0.0
 11
78.5141201878819
 21
1097.572870004736
 31
0.0
  0
LINE
  5
DD
100
AcDbEntity
  8
FILTERS
100
AcDbLine
 10
66.96711480409057
 20
1103.572870004735
 30
0.0
 11
66.96711480409039
 21
1097.473039766983
 31
0.0
  0
LINE
  5
DE
100
AcDbEntity
  8
FILTERS
100
AcDbLine
 10
55.24061749598903
 20
1157.822643144296
 30
0.0
 11
55.24061749598804
 21
1096.653422749481
 31
0.0
  0
LINE
  5
DF
100
AcDbEntity
  8
FILTERS
100
AcDbLine
 10
90.2406174959872
 20
1157.822643144296
 30
0.0
 11
90.24061749598605
 21
1097.572870004736
 31
0.0
  0
LINE
  5
E0
100
AcDbEntity
  8
FILTERS
100
AcDbLine
 10
90.2406174959872
 20
1157.822643144296
 30
0.0
 11
55.24061749598903
 21
1157.822643144296
 31
0.0
  0
CIRCLE
  5
E1
100
AcDbEntity
  8
FILTERS
100
AcDbCircle
 10
72.74061749598686
 20
1144.072870004739
 30
0.0
 40
7.499999999999999
  0
LINE
  5
E2
100
AcDbEntity
  8
FILTERS
100
AcDbLine
 10
66.74061749598682
 20
1103.572870004736
 30
0.0
 11
66.74061749598682
 21
1111.839720143186
 31
0.0
  0
LINE
  5
E3
100
AcDbEntity
  8
FILTERS
100
AcDbLine
 10
78.74061749598681
 20
1103.572870004736
 30
0.0
 11
78.74061749598681
 21
1111.839720143186
 31
0.0
  0
ARC
  5
E4
100
AcDbEntity
  8
FILTERS
100
AcDbCircle
 10
72.74061749598691
 20
1102.320580370732
 30
0.0
 40
11.2522896340041
100
AcDbArc
 50
57.77639770203904
 51
122.2236022979605
  0
LINE
  5
E5
100
AcDbEntity
  8
FILTERS
100
AcDbLine
 10
61.1936121121944
 20
1103.572870004736
 30
0.0
 11
61.1936121121944
 21
1097.17319013248
 31
0.0
  0
LINE
  5
E6
100
AcDbEntity
  8
FILTERS
100
AcDbLine
 10
84.28762287978253
 20
1097.572870004736
 30
0.0
 11
84.28762287977942
 21
1103.572870004736
 31
0.0
  0
LINE
  5
E7
100
AcDbEntity
  8
FILTERS
100
AcDbLine
 10
84.28762287977942
 20
1103.572870004736
 30
0.0
 11
61.1936121121944
 21
1103.572870004736
 31
0.0
  0
LINE
  5
E8
100
AcDbEntity
  8
FILTERS
  6
CONTINUOUS
 62
     7
100
AcDbLine
 10
1074.441559849782
 20
416.9755336022326
 30
0.0
 11
1074.441559849782
 21
560.3629866773676
 31
0.0
  0
LINE
  5
E9
100
AcDbEntity
  8
FILTERS
  6
CONTINUOUS
 62
     7
100
AcDbLine
 10
1109.441559849781
 20
425.4416102983977
 30
0.0
 11
1109.441559849781
 21
560.3629866773676
 31
0.0
  0
LINE
  5
EA
100
AcDbEntity
  8
AXES
  6
CONTINUOUS
100
AcDbLine
 10
1125.235790608752
 20
540.3629866773676
 30
0.0
 11
1063.575445345017
 21
540.3629866773676
 31
0.0
  0
LINE
  5
EB
100
AcDbEntity
  8
AXES
  6
CONTINUOUS
100
AcDbLine
 10
1123.953739326701
 20
490.3629866773674
 30
0.0
 11
1062.942533952612
 21
490.3629866773674
 31
0.0
  0
LINE
  5
EC
100
AcDbEntity
  8
FILTERS
  6
CONTINUOUS
 62
     7
100
AcDbLine
 10
1109.441559849781
 20
560.3629866773673
 30
0.0
 11
1074.441559849782
 21
560.3629866773673
 31
0.0
  0
LINE
  5
ED
100
AcDbEntity
  8
FILTERS
  6
CONTINUOUS
100
AcDbLine
 10
1109.441559849781
 20
465.3629866773677
 30
0.0
 11
1074.441559849782
 21
465.3629866773674
 31
0.0
  0
LWPOLYLINE
  5
EE
100
AcDbEntity
  8
FILTERS
  6
CONTINUOUS
100
AcDbPolyline
 90
        6
 70
     1
 43
0.0
 10
1081.551559849781
 20
540.3629866773672
 10
1086.746559849781
 20
549.3609906226875
 10
1097.136559849781
 20
549.3609906226875
 10
1102.331559849781
 20
540.3629866773672
 10
1097.136559849781
 20
531.3649827320469
 10
1086.746559849781
 20
531.3649827320469
  0
LWPOLYLINE
  5
EF
100
AcDbEntity
  8
FILTERS
  6
CONTINUOUS
100
AcDbPolyline
 90
        6
 70
     1
 43
0.0
 10
1081.551559849781
 20
490.362986677368
 10
1086.746559849782
 20
499.3609906226879
 10
1097.136559849782
 20
499.3609906226872
 10
1102.331559849781
 20
490.3629866773665
 10
1097.136559849781
 20
481.3649827320467
 10
1086.746559849781
 20
481.3649827320474
  0
LINE
  5
F0
100
AcDbEntity
  8
FILTERS
  6
CONTINUOUS
100
AcDbLine
 10
1076.353102581662
 20
546.3629866773678
 30
0.0
 11
1074.441559849782
 21
546.3629866773678
 31
0.0
  0
LINE
  5
F1
100
AcDbEntity
  8
FILTERS
  6
CONTINUOUS
100
AcDbLine
 10
1076.353102581661
 20
534.362986677368
 30
0.0
 11
1074.441559849782
 21
534.362986677368
 31
0.0
  0
ARC
  5
F2
100
AcDbEntity
  8
FILTERS
100
AcDbCircle
 10
1091.941559849781
 20
540.3629866773672
 30
0.0
 40
15.0
100
AcDbArc
 50
209.9999999999992
 51
149.9999999999988
  0
ARC
  5
F3
100
AcDbEntity
  8
FILTERS
100
AcDbCircle
 10
1076.353102581662
 20
549.3629866773676
 30
0.0
 40
3.0
100
AcDbArc
 50
269.9999999999999
 51
329.9999999999989
  0
ARC
  5
F4
100
AcDbEntity
  8
FILTERS
  6
CONTINUOUS
100
AcDbCircle
 10
1076.353102581661
 20
531.3629866773675
 30
0.0
 40
3.0
100
AcDbArc
 50
29.99999999999915
 51
89.99999999999991
  0
LINE
  5
F5
100
AcDbEntity
  8
FILTERS
  6
CONTINUOUS
100
AcDbLine
 10
1076.353102581662
 20
496.3629866773679
 30
0.0
 11
1074.441559849782
 21
496.3629866773679
 31
0.0
  0
LINE
  5
F6
100
AcDbEntity
  8
FILTERS
  6
CONTINUOUS
100
AcDbLine
 10
1076.353102581661
 20
484.3629866773679
 30
0.0
 11
1074.441559849782
 21
484.3629866773679
 31
0.0
  0
ARC
  5
F7
100
AcDbEntity
  8
FILTERS
100
AcDbCircle
 10
1091.941559849781
 20
490.3629866773672
 30
0.0
 40
15.0
100
AcDbArc
 50
209.9999999999992
 51
149.9999999999988
  0
ARC
  5
F8
100
AcDbEntity
  8
FILTERS
100
AcDbCircle
 10
1076.353102581662
 20
499.3629866773676
 30
0.0
 40
3.0
100
AcDbArc
 50
269.9999999999999
 51
329.9999999999989
  0
ARC
  5
F9
100
AcDbEntity
  8
FILTERS
  6
CONTINUOUS
100
AcDbCircle
 10
1076.353102581661
 20
481.3629866773675
 30
0.0
 40
3.0
100
AcDbArc
 50
29.99999999999915
 51
89.99999999999991
  0
CIRCLE
  5
FA
100
AcDbEntity
  8
FILTERS
100
AcDbCircle
 10
1091.941559849781
 20
490.3629866773672
 30
0.0
 40
6.0
  0
CIRCLE
  5
FB
100
AcDbEntity
  8
FILTERS
100
AcDbCircle
 10
1091.941559849781
 20
540.3629866773672
 30
0.0
 40
6.0
  0
LINE
  5
FC
100
AcDbEntity
  8
FILTERS
  6
CONTINUOUS
 62
     7
100
AcDbLine
 10
1425.441559849781
 20
416.9755336022326
 30
0.0
 11
1425.441559849781
 21
560.3629866773676
 31
0.0
  0
LINE
  5
FD
100
AcDbEntity
  8
FILTERS
  6
CONTINUOUS
 62
     7
100
AcDbLine
 10
1390.441559849781
 20
425.4416102983977
 30
0.0
 11
1390.441559849782
 21
560.3629866773676
 31
0.0
  0
LINE
  5
FE
100
AcDbEntity
  8
AXES
  6
CONTINUOUS
100
AcDbLine
 10
1374.647329090811
 20
540.3629866773676
 30
0.0
 11
1436.307674354546
 21
540.3629866773676
 31
0.0
  0
LINE
  5
FF
100
AcDbEntity
  8
AXES
  6
CONTINUOUS
100
AcDbLine
 10
1375.929380372862
 20
490.3629866773674
 30
0.0
 11
1436.940585746951
 21
490.3629866773674
 31
0.0
  0
LINE
  5
100
100
AcDbEntity
  8
FILTERS
  6
CONTINUOUS
 62
     7
100
AcDbLine
 10
1390.441559849782
 20
560.3629866773673
 30
0.0
 11
1425.441559849781
 21
560.3629866773673
 31
0.0
  0
LINE
  5
101
100
AcDbEntity
  8
FILTERS
  6
CONTINUOUS
100
AcDbLine
 10
1390.441559849782
 20
465.3629866773677
 30
0.0
 11
1425.441559849781
 21
465.3629866773674
 31
0.0
  0
LWPOLYLINE
  5
102
100
AcDbEntity
  8
FILTERS
  6
CONTINUOUS
100
AcDbPolyline
 90
        6
 70
     1
 43
0.0
 10
1418.331559849781
 20
540.3629866773672
 10
1413.136559849781
 20
549.3609906226875
 10
1402.746559849781
 20
549.3609906226875
 10
1397.551559849781
 20
540.3629866773672
 10
1402.746559849781
 20
531.3649827320469
 10
1413.136559849781
 20
531.3649827320469
  0
LWPOLYLINE
  5
103
100
AcDbEntity
  8
FILTERS
  6
CONTINUOUS
100
AcDbPolyline
 90
        6
 70
     1
 43
0.0
 10
1418.331559849781
 20
490.362986677368
 10
1413.136559849781
 20
499.3609906226879
 10
1402.746559849781
 20
499.3609906226872
 10
1397.551559849781
 20
490.3629866773665
 10
1402.746559849782
 20
481.3649827320467
 10
1413.136559849782
 20
481.3649827320474
  0
LINE
  5
104
100
AcDbEntity
  8
FILTERS
  6
CONTINUOUS
100
AcDbLine
 10
1423.530017117901
 20
546.3629866773678
 30
0.0
 11
1425.441559849781
 21
546.3629866773678
 31
0.0
  0
LINE
  5
105
100
AcDbEntity
  8
FILTERS
  6
CONTINUOUS
100
AcDbLine
 10
1423.530017117901
 20
534.362986677368
 30
0.0
 11
1425.441559849781
 21
534.362986677368
 31
0.0
  0
ARC
  5
106
100
AcDbEntity
  8
FILTERS
100
AcDbCircle
 10
1407.941559849781
 20
540.3629866773672
 30
0.0
 40
15.0
100
AcDbArc
 50
30.00000000000119
 51
330.0000000000007
  0
ARC
  5
107
100
AcDbEntity
  8
FILTERS
100
AcDbCircle
 10
1423.530017117901
 20
549.3629866773676
 30
0.0
 40
3.0
100
AcDbArc
 50
210.000000000001
 51
270.0
  0
ARC
  5
108
100
AcDbEntity
  8
FILTERS
  6
CONTINUOUS
100
AcDbCircle
 10
1423.530017117901
 20
531.3629866773675
 30
0.0
 40
3.0
100
AcDbArc
 50
90.0000000000001
 51
150.0000000000008
  0
LINE
  5
109
100
AcDbEntity
  8
FILTERS
  6
CONTINUOUS
100
AcDbLine
 10
1423.530017117901
 20
496.3629866773679
 30
0.0
 11
1425.441559849781
 21
496.3629866773679
 31
0.0
  0
LINE
  5
10A
100
AcDbEntity
  8
FILTERS
  6
CONTINUOUS
100
AcDbLine
 10
1423.530017117901
 20
484.3629866773679
 30
0.0
 11
1425.441559849781
 21
484.3629866773679
 31
0.0
  0
ARC
  5
10B
100
AcDbEntity
  8
FILTERS
100
AcDbCircle
 10
1407.941559849781
 20
490.3629866773672
 30
0.0
 40
15.0
100
AcDbArc
 50
30.00000000000119
 51
330.0000000000007
  0
ARC
  5
10C
100
AcDbEntity
  8
FILTERS
100
AcDbCircle
 10
1423.530017117901
 20
499.3629866773676
 30
0.0
 40
3.0
100
AcDbArc
 50
210.000000000001
 51
270.0
  0
ARC
  5
10D
100
AcDbEntity
  8
FILTERS
  6
CONTINUOUS
100
AcDbCircle
 10
1423.530017117901
 20
481.3629866773675
 30
0.0
 40
3.0
100
AcDbArc
 50
90.0000000000001
 51
150.0000000000008
  0
CIRCLE
  5
10E
100
AcDbEntity
  8
FILTERS
100
AcDbCircle
 10
1407.941559849781
 20
490.3629866773672
 30
0.0
 40
6.0
  0
CIRCLE
  5
10F
100
AcDbEntity
  8
FILTERS
100
AcDbCircle
 10
1407.941559849781
 20
540.3629866773672
 30
0.0
 40
6.0
  0
LINE
  5
110
100
AcDbEntity
  8
FILTERS
  6
CONTINUOUS
 62
     7
100
AcDbLine
 10
1567.941559849781
 20
442.3629866773675
 30
0.0
 11
1425.441559849781
 21
442.3629866773672
 31
0.0
  0
LINE
  5
111
100
AcDbEntity
  8
FILTERS
  6
CONTINUOUS
 62
     7
100
AcDbLine
 10
1574.941559849781
 20
440.3629866773676
 30
0.0
 11
1425.441559849781
 21
440.362986677368
 31
0.0
  0
LINE
  5
112
100
AcDbEntity
  8
FILTERS
  6
CONTINUOUS
 62
     7
100
AcDbLine
 10
1567.941559849781
 20
438.3629866773675
 30
0.0
 11
1425.441559849781
 21
438.3629866773676
 31
0.0
  0
LINE
  5
113
100
AcDbEntity
  8
FILTERS
  6
CONTINUOUS
 62
     7
100
AcDbLine
 10
1390.441559849782
 20
442.3629866773675
 30
0.0
 11
1109.441559849781
 21
442.3629866773675
 31
0.0
  0
LINE
  5
114
100
AcDbEntity
  8
FILTERS
  6
CONTINUOUS
 62
     7
100
AcDbLine
 10
1074.441559849781
 20
442.3629866773673
 30
0.0
 11
931.9415598497814
 21
442.3629866773675
 31
0.0
  0
LINE
  5
115
100
AcDbEntity
  8
FILTERS
  6
CONTINUOUS
 62
     7
100
AcDbLine
 10
1390.441559849782
 20
440.3629866773677
 30
0.0
 11
1109.441559849781
 21
440.3629866773676
 31
0.0
  0
LINE
  5
116
100
AcDbEntity
  8
FILTERS
  6
CONTINUOUS
 62
     7
100
AcDbLine
 10
1074.441559849781
 20
440.3629866773679
 30
0.0
 11
924.9415598497813
 21
440.3629866773674
 31
0.0
  0
LINE
  5
117
100
AcDbEntity
  8
FILTERS
  6
CONTINUOUS
 62
     7
100
AcDbLine
 10
1390.441559849782
 20
438.3629866773675
 30
0.0
 11
1109.441559849781
 21
438.3629866773674
 31
0.0
  0
LINE
  5
118
100
AcDbEntity
  8
FILTERS
  6
CONTINUOUS
 62
     7
100
AcDbLine
 10
1074.441559849781
 20
438.3629866773675
 30
0.0
 11
931.9415598497814
 21
438.3629866773675
 31
0.0
  0
LINE
  5
119
100
AcDbEntity
  8
FILTERS
  6
CONTINUOUS
 62
     7
100
AcDbLine
 10
212.7406174959869
 20
245.3629866773672
 30
0.0
 11
212.7406174959887
 21
280.3629866773673
 31
0.0
  0
LINE
  5
11A
100
AcDbEntity
  8
FILTERS
  6
CONTINUOUS
 62
     7
100
AcDbLine
 10
-67.25938250401288
 20
245.3629866773672
 30
0.0
 11
-67.25938250401161
 21
280.3629866773672
 31
0.0
  0
LINE
  5
11B
100
AcDbEntity
  8
FILTERS
  6
CONTINUOUS
 62
     7
100
AcDbLine
 10
-67.25938250401288
 20
245.3629866773672
 30
0.0
 11
212.7406174959871
 21
245.3629866773672
 31
0.0
  0
LINE
  5
11C
100
AcDbEntity
  8
FILTERS
  6
CONTINUOUS
 62
     7
100
AcDbLine
 10
441.2406174959872
 20
130.3629866773672
 30
0.0
 11
441.2406174959872
 21
145.3629866773672
 31
0.0
  0
LINE
  5
11D
100
AcDbEntity
  8
FILTERS
  6
CONTINUOUS
 62
     7
100
AcDbLine
 10
336.2406174959868
 20
130.3629866773672
 30
0.0
 11
336.2406174959872
 21
145.3629866773672
 31
0.0
  0
LINE
  5
11E
100
AcDbEntity
  8
FILTERS
  6
CONTINUOUS
 62
     7
100
AcDbLine
 10
441.2406174959872
 20
145.3629866773672
 30
0.0
 11
336.2406174959872
 21
145.3629866773672
 31
0.0
  0
LINE
  5
11F
100
AcDbEntity
  8
FILTERS
  6
CONTINUOUS
 62
     7
100
AcDbLine
 10
528.7406174959873
 20
245.3629866773672
 30
0.0
 11
528.7406174959897
 21
280.3629866773673
 31
0.0
  0
LINE
  5
120
100
AcDbEntity
  8
FILTERS
  6
CONTINUOUS
 62
     7
100
AcDbLine
 10
248.7406174959872
 20
245.3629866773672
 30
0.0
 11
248.7406174959876
 21
280.3629866773673
 31
0.0
  0
LINE
  5
121
100
AcDbEntity
  8
FILTERS
  6
CONTINUOUS
 62
     7
100
AcDbLine
 10
248.7406174959872
 20
245.3629866773672
 30
0.0
 11
528.740617495987
 21
245.3629866773672
 31
0.0
  0
LINE
  5
122
100
AcDbEntity
  8
FILTERS
  6
CONTINUOUS
 62
     7
100
AcDbLine
 10
-94.25938250401269
 20
280.3629866773672
 30
0.0
 11
555.7406174959875
 21
280.3629866773673
 31
0.0
  0
LINE
  5
123
100
AcDbEntity
  8
FILTERS
  6
CONTINUOUS
100
AcDbLine
 10
-67.25938250401288
 20
245.3629866773672
 30
0.0
 11
20.24061749598707
 21
145.3629866773672
 31
0.0
  0
LINE
  5
124
100
AcDbEntity
  8
FILTERS
  6
CONTINUOUS
100
AcDbLine
 10
212.7406174959871
 20
245.3629866773672
 30
0.0
 11
125.2406174959872
 21
145.3629866773672
 31
0.0
  0
LINE
  5
125
100
AcDbEntity
  8
FILTERS
  6
CONTINUOUS
100
AcDbLine
 10
248.7406174959872
 20
245.3629866773672
 30
0.0
 11
336.2406174959872
 21
145.3629866773672
 31
0.0
  0
LINE
  5
126
100
AcDbEntity
  8
FILTERS
  6
CONTINUOUS
100
AcDbLine
 10
528.740617495987
 20
245.3629866773672
 30
0.0
 11
441.2406174959872
 21
145.3629866773672
 31
0.0
  0
LINE
  5
127
100
AcDbEntity
  8
FILTERS
  6
CONTINUOUS
100
AcDbLine
 10
548.7406174959873
 20
451.3629866773676
 30
0.0
 11
583.7406174959876
 21
451.3629866773675
 31
0.0
  0
LINE
  5
128
100
AcDbEntity
  8
FILTERS
  6
CONTINUOUS
100
AcDbLine
 10
548.7406174959868
 20
571.3629866773685
 30
0.0
 11
583.7406174959864
 21
571.3629866773673
 31
0.0
  0
LINE
  5
129
100
AcDbEntity
  8
FILTERS
  6
CONTINUOUS
100
AcDbLine
 10
548.7406174959876
 20
295.3629866773666
 30
0.0
 11
583.7406174959876
 21
295.3629866773677
 31
0.0
  0
LINE
  5
12A
100
AcDbEntity
  8
FILTERS
  6
CONTINUOUS
100
AcDbLine
 10
548.7406174959873
 20
415.362986677367
 30
0.0
 11
583.7406174959864
 21
415.3629866773675
 31
0.0
  0
LINE
  5
12B
100
AcDbEntity
  8
AXES
  6
CONTINUOUS
100
AcDbLine
 10
500.431422237263
 20
355.3629866773675
 30
0.0
 11
990.3594048240369
 21
355.3629866773675
 31
0.0
  0
LINE
  5
12C
100
AcDbEntity
  8
FILTERS
  6
CONTINUOUS
 62
     7
100
AcDbLine
 10
333.2406174959861
 20
122.3629866773673
 30
0.0
 11
444.2406174959879
 21
122.3629866773672
 31
0.0
  0
LINE
  5
12D
100
AcDbEntity
  8
FILTERS
  6
CONTINUOUS
 62
     7
100
AcDbLine
 10
444.2406174959879
 20
122.3629866773672
 30
0.0
 11
444.2406174959879
 21
130.3629866773672
 31
0.0
  0
LINE
  5
12E
100
AcDbEntity
  8
FILTERS
  6
CONTINUOUS
 62
     7
100
AcDbLine
 10
333.2406174959861
 20
122.3629866773672
 30
0.0
 11
333.2406174959871
 21
130.3629866773672
 31
0.0
  0
LINE
  5
12F
100
AcDbEntity
  8
FILTERS
  6
CONTINUOUS
 62
     7
100
AcDbLine
 10
333.2406174959864
 20
130.3629866773672
 30
0.0
 11
444.2406174959883
 21
130.3629866773672
 31
0.0
  0
LINE
  5
130
100
AcDbEntity
  8
FILTERS
  6
CONTINUOUS
 62
     7
100
AcDbLine
 10
-94.25938250401287
 20
580.3629866773674
 30
0.0
 11
555.7406174959875
 21
580.3629866773672
 31
0.0
  0
CIRCLE
  5
131
100
AcDbEntity
  8
FILTERS
  6
CONTINUOUS
100
AcDbCircle
 10
230.7406174959869
 20
357.862986677367
 30
0.0
 40
55.0
  0
CIRCLE
  5
132
100
AcDbEntity
  8
FILTERS
  6
CONTINUOUS
100
AcDbCircle
 10
230.7406174959869
 20
357.862986677367
 30
0.0
 40
45.99999999999999
  0
LINE
  5
133
100
AcDbEntity
  8
FILTERS
  6
CONTINUOUS
100
AcDbLine
 10
233.240617495983
 20
359.3629866773677
 30
0.0
 11
233.240617495983
 21
356.3629866773658
 31
0.0
  0
LINE
  5
134
100
AcDbEntity
  8
FILTERS
  6
CONTINUOUS
100
AcDbLine
 10
228.2406174959828
 20
359.3629866773694
 30
0.0
 11
228.2406174959831
 21
356.362986677365
 31
0.0
  0
LINE
  5
135
100
AcDbEntity
  8
FILTERS
  6
CONTINUOUS
100
AcDbLine
 10
228.2406174959828
 20
359.3629866773683
 30
0.0
 11
233.2406174959909
 21
359.3629866773677
 31
0.0
  0
LINE
  5
136
100
AcDbEntity
  8
FILTERS
  6
CONTINUOUS
100
AcDbLine
 10
228.2406174959828
 20
356.3629866773623
 30
0.0
 11
233.2406174959909
 21
356.3629866773657
 31
0.0
  0
ARC
  5
137
100
AcDbEntity
  8
FILTERS
  6
CONTINUOUS
100
AcDbCircle
 10
230.7406174959826
 20
347.8629866773641
 30
0.0
 40
8.999999999999998
100
AcDbArc
 50
106.1276202131581
 51
73.87237978683703
  0
ARC
  5
138
100
AcDbEntity
  8
FILTERS
  6
CONTINUOUS
100
AcDbCircle
 10
230.7406174959826
 20
347.8629866773641
 30
0.0
 40
11.0
100
AcDbArc
 50
103.1365587869437
 51
76.86344121305332
  0
LINE
  5
139
100
AcDbEntity
  8
FILTERS
  6
CONTINUOUS
100
AcDbLine
 10
555.7406174959875
 20
440.3629866773671
 30
0.0
 11
548.7406174959874
 21
442.3629866773672
 31
0.0
  0
LINE
  5
13A
100
AcDbEntity
  8
FILTERS
  6
CONTINUOUS
100
AcDbLine
 10
555.7406174959875
 20
440.3629866773671
 30
0.0
 11
548.7406174959874
 21
438.3629866773672
 31
0.0
  0
LINE
  5
13B
100
AcDbEntity
  8
FILTERS
  6
CONTINUOUS
100
AcDbLine
 10
-94.25938250401287
 20
440.3629866773672
 30
0.0
 11
-87.25938250401302
 21
442.3629866773672
 31
0.0
  0
LINE
  5
13C
100
AcDbEntity
  8
FILTERS
  6
CONTINUOUS
100
AcDbLine
 10
-94.25938250401287
 20
440.3629866773672
 30
0.0
 11
-87.25938250401302
 21
438.3629866773672
 31
0.0
  0
LINE
  5
13D
100
AcDbEntity
  8
FILTERS
  6
CONTINUOUS
 62
     7
100
AcDbLine
 10
-87.25938250401267
 20
282.3629866773673
 30
0.0
 11
-87.25938250401302
 21
438.3629866773672
 31
0.0
  0
LINE
  5
13E
100
AcDbEntity
  8
FILTERS
  6
CONTINUOUS
 62
     7
100
AcDbLine
 10
-87.2593825040132
 20
442.3629866773672
 30
0.0
 11
-87.25938250401339
 21
578.3629866773671
 31
0.0
  0
LINE
  5
13F
100
AcDbEntity
  8
FILTERS
  6
CONTINUOUS
 62
     7
100
AcDbLine
 10
-87.25938250401302
 20
282.3629866773674
 30
0.0
 11
548.7406174959874
 21
282.3629866773674
 31
0.0
  0
LINE
  5
140
100
AcDbEntity
  8
FILTERS
  6
CONTINUOUS
100
AcDbLine
 10
-94.25938250401287
 20
280.3629866773674
 30
0.0
 11
-87.25938250401302
 21
282.3629866773674
 31
0.0
  0
LINE
  5
141
100
AcDbEntity
  8
FILTERS
  6
CONTINUOUS
100
AcDbLine
 10
555.7406174959875
 20
280.3629866773673
 30
0.0
 11
548.7406174959874
 21
282.3629866773674
 31
0.0
  0
LINE
  5
142
100
AcDbEntity
  8
FILTERS
  6
CONTINUOUS
100
AcDbLine
 10
-94.25938250401287
 20
580.3629866773672
 30
0.0
 11
-87.25938250401302
 21
578.3629866773672
 31
0.0
  0
LINE
  5
143
100
AcDbEntity
  8
FILTERS
  6
CONTINUOUS
 62
     7
100
AcDbLine
 10
-87.25938250401302
 20
578.3629866773672
 30
0.0
 11
548.7406174959874
 21
578.3629866773672
 31
0.0
  0
LINE
  5
144
100
AcDbEntity
  8
FILTERS
  6
CONTINUOUS
100
AcDbLine
 10
555.7406174959875
 20
580.3629866773672
 30
0.0
 11
548.7406174959874
 21
578.3629866773672
 31
0.0
  0
LINE
  5
145
100
AcDbEntity
  8
FILTERS
  6
CONTINUOUS
 62
     7
100
AcDbLine
 10
548.7406174959867
 20
442.3629866773672
 30
0.0
 11
548.7406174960015
 21
451.3629866773694
 31
0.0
  0
LINE
  5
146
100
AcDbEntity
  8
FILTERS
  6
CONTINUOUS
 62
     7
100
AcDbLine
 10
548.7406174960021
 20
571.3629866773687
 30
0.0
 11
548.7406174959974
 21
578.3629866773671
 31
0.0
  0
ARC
  5
147
100
AcDbEntity
  8
FILTERS
  6
CONTINUOUS
100
AcDbCircle
 10
697.0645872378947
 20
511.3629866773685
 30
0.0
 40
159.9999999999949
100
AcDbArc
 50
157.9756871629571
 51
202.0243128370432
  0
ARC
  5
148
100
AcDbEntity
  8
FILTERS
  6
CONTINUOUS
100
AcDbCircle
 10
697.0645872378947
 20
355.3629866773683
 30
0.0
 40
159.9999999999949
100
AcDbArc
 50
157.9756871629571
 51
202.0243128370432
  0
LINE
  5
149
100
AcDbEntity
  8
FILTERS
  6
CONTINUOUS
 62
     7
100
AcDbLine
 10
548.7406174959891
 20
282.3629866773673
 30
0.0
 11
548.7406174959861
 21
295.3629866773667
 31
0.0
  0
LINE
  5
14A
100
AcDbEntity
  8
FILTERS
  6
CONTINUOUS
 62
     7
100
AcDbLine
 10
548.7406174959885
 20
415.3629866773695
 30
0.0
 11
548.7406174959824
 21
438.3629866773672
 31
0.0
  0
LINE
  5
14B
100
AcDbEntity
  8
FILTERS
  6
CONTINUOUS
 62
     7
100
AcDbLine
 10
125.240617495987
 20
130.3629866773672
 30
0.0
 11
125.240617495987
 21
145.3629866773672
 31
0.0
  0
LINE
  5
14C
100
AcDbEntity
  8
FILTERS
  6
CONTINUOUS
 62
     7
100
AcDbLine
 10
20.24061749598671
 20
130.3629866773672
 30
0.0
 11
20.24061749598707
 21
145.3629866773672
 31
0.0
  0
LINE
  5
14D
100
AcDbEntity
  8
FILTERS
  6
CONTINUOUS
 62
     7
100
AcDbLine
 10
125.240617495987
 20
145.3629866773672
 30
0.0
 11
20.24061749598707
 21
145.3629866773672
 31
0.0
  0
LINE
  5
14E
100
AcDbEntity
  8
FILTERS
  6
CONTINUOUS
 62
     7
100
AcDbLine
 10
17.24061749598594
 20
122.3629866773673
 30
0.0
 11
128.2406174959877
 21
122.3629866773672
 31
0.0
  0
LINE
  5
14F
100
AcDbEntity
  8
FILTERS
  6
CONTINUOUS
 62
     7
100
AcDbLine
 10
128.2406174959877
 20
122.3629866773672
 30
0.0
 11
128.2406174959877
 21
130.3629866773672
 31
0.0
  0
LINE
  5
150
100
AcDbEntity
  8
FILTERS
  6
CONTINUOUS
 62
     7
100
AcDbLine
 10
17.24061749598594
 20
122.3629866773672
 30
0.0
 11
17.24061749598703
 21
130.3629866773672
 31
0.0
  0
LINE
  5
151
100
AcDbEntity
  8
FILTERS
  6
CONTINUOUS
 62
     7
100
AcDbLine
 10
17.24061749598631
 20
130.3629866773672
 30
0.0
 11
128.2406174959881
 21
130.3629866773672
 31
0.0
  0
LINE
  5
152
100
AcDbEntity
  8
FILTERS
  6
CONTINUOUS
 62
     7
100
AcDbLine
 10
588.7406174959868
 20
443.8629866773728
 30
0.0
 11
588.7406174959883
 21
578.8629866773422
 31
0.0
  0
LINE
  5
153
100
AcDbEntity
  8
FILTERS
  6
CONTINUOUS
 62
     7
100
AcDbLine
 10
583.7406174959872
 20
443.8629866773729
 30
0.0
 11
583.7406174959856
 21
578.8629866773422
 31
0.0
  0
LINE
  5
154
100
AcDbEntity
  8
FILTERS
  6
CONTINUOUS
100
AcDbLine
 10
588.7406174959874
 20
578.8629866773677
 30
0.0
 11
583.7406174959858
 21
578.8629866773677
 31
0.0
  0
LINE
  5
155
100
AcDbEntity
  8
FILTERS
  6
CONTINUOUS
100
AcDbLine
 10
588.7406174959875
 20
443.8629866773677
 30
0.0
 11
583.7406174959876
 21
443.8629866773679
 31
0.0
  0
LINE
  5
156
100
AcDbEntity
  8
FILTERS
  6
CONTINUOUS
 62
     7
100
AcDbLine
 10
588.7406174959866
 20
287.8629866773725
 30
0.0
 11
588.740617495988
 21
422.8629866773419
 31
0.0
  0
LINE
  5
157
100
AcDbEntity
  8
FILTERS
  6
CONTINUOUS
 62
     7
100
AcDbLine
 10
583.7406174959871
 20
287.8629866773727
 30
0.0
 11
583.7406174959855
 21
422.8629866773419
 31
0.0
  0
LINE
  5
158
100
AcDbEntity
  8
FILTERS
  6
CONTINUOUS
100
AcDbLine
 10
588.7406174959871
 20
422.8629866773674
 30
0.0
 11
583.7406174959856
 21
422.8629866773674
 31
0.0
  0
LINE
  5
159
100
AcDbEntity
  8
FILTERS
  6
CONTINUOUS
100
AcDbLine
 10
588.7406174959874
 20
287.8629866773675
 30
0.0
 11
583.7406174959873
 21
287.8629866773676
 31
0.0
  0
LINE
  5
15A
100
AcDbEntity
  8
FILTERS
  6
CONTINUOUS
 62
     7
100
AcDbLine
 10
-87.25938250401302
 20
442.3629866773672
 30
0.0
 11
548.7406174959814
 21
442.3629866773659
 31
0.0
  0
LINE
  5
15B
100
AcDbEntity
  8
FILTERS
  6
CONTINUOUS
 62
     7
100
AcDbLine
 10
-94.25938250401287
 20
440.3629866773672
 30
0.0
 11
555.7406174960102
 21
440.3629866773691
 31
0.0
  0
LINE
  5
15C
100
AcDbEntity
  8
FILTERS
  6
CONTINUOUS
 62
     7
100
AcDbLine
 10
-87.25938250401302
 20
438.3629866773672
 30
0.0
 11
548.7406174959825
 21
438.362986677368
 31
0.0
  0
LINE
  5
15D
100
AcDbEntity
  8
FILTERS
100
AcDbLine
 10
1519.941559849782
 20
243.862986677424
 30
0.0
 11
1407.941559849782
 21
243.8629866774238
 31
0.0
  0
LINE
  5
15E
100
AcDbEntity
  8
FILTERS
100
AcDbLine
 10
1519.941559849782
 20
273.8629866773669
 30
0.0
 11
1407.941559849784
 21
273.8629866773676
 31
0.0
  0
LINE
  5
15F
100
AcDbEntity
  8
AXES
  6
CONTINUOUS
100
AcDbLine
 10
1499.941559849782
 20
222.4365729795855
 30
0.0
 11
1499.941559849782
 21
302.2741694388643
 31
0.0
  0
LINE
  5
160
100
AcDbEntity
  8
FILTERS
  6
CONTINUOUS
100
AcDbLine
 10
1519.941559849781
 20
243.862986677424
 30
0.0
 11
1519.941559849782
 21
273.8629866773672
 31
0.0
  0
LINE
  5
161
100
AcDbEntity
  8
FILTERS
  6
CONTINUOUS
100
AcDbLine
 10
1407.941559849782
 20
243.8629866774237
 30
0.0
 11
1407.941559849783
 21
273.8629866773673
 31
0.0
  0
LINE
  5
162
100
AcDbEntity
  8
FILTERS
100
AcDbLine
 10
1504.941559849782
 20
252.8629866773953
 30
0.0
 11
1494.941559849782
 21
252.8629866773953
 31
0.0
  0
LINE
  5
163
100
AcDbEntity
  8
FILTERS
100
AcDbLine
 10
1494.941559849782
 20
264.8629866773953
 30
0.0
 11
1504.941559849782
 21
264.8629866773953
 31
0.0
  0
ARC
  5
164
100
AcDbEntity
  8
FILTERS
100
AcDbCircle
 10
1494.941559849782
 20
258.8629866773954
 30
0.0
 40
6.0
100
AcDbArc
 50
90.00000000000005
 51
270.0
  0
ARC
  5
165
100
AcDbEntity
  8
FILTERS
100
AcDbCircle
 10
1504.941559849782
 20
258.8629866773954
 30
0.0
 40
6.0
100
AcDbArc
 50
270.0
 51
90.00000000000007
  0
LINE
  5
166
100
AcDbEntity
  8
FILTERS
  6
CONTINUOUS
 62
     7
100
AcDbLine
 10
1547.941559849782
 20
245.3629866773676
 30
0.0
 11
1519.94155984978
 21
245.3629866773677
 31
0.0
  0
LINE
  5
167
100
AcDbEntity
  8
FILTERS
  6
CONTINUOUS
 62
     7
100
AcDbLine
 10
1407.941559849781
 20
245.3629866773676
 30
0.0
 11
1267.941559849782
 21
245.3629866773676
 31
0.0
  0
LINE
  5
168
100
AcDbEntity
  8
FILTERS
100
AcDbLine
 10
979.9415598497821
 20
243.8629866774237
 30
0.0
 11
1091.941559849781
 21
243.8629866774237
 31
0.0
  0
LINE
  5
169
100
AcDbEntity
  8
FILTERS
100
AcDbLine
 10
979.9415598497821
 20
273.8629866773667
 30
0.0
 11
1091.941559849779
 21
273.8629866773674
 31
0.0
  0
LINE
  5
16A
100
AcDbEntity
  8
FILTERS
  6
CONTINUOUS
100
AcDbLine
 10
979.9415598497823
 20
243.8629866774237
 30
0.0
 11
979.9415598497818
 21
273.862986677367
 31
0.0
  0
LINE
  5
16B
100
AcDbEntity
  8
FILTERS
  6
CONTINUOUS
100
AcDbLine
 10
1091.941559849781
 20
243.8629866774236
 30
0.0
 11
1091.94155984978
 21
273.8629866773671
 31
0.0
  0
LINE
  5
16C
100
AcDbEntity
  8
FILTERS
100
AcDbLine
 10
994.9415598497818
 20
252.8629866773951
 30
0.0
 11
1004.941559849781
 21
252.8629866773951
 31
0.0
  0
LINE
  5
16D
100
AcDbEntity
  8
FILTERS
100
AcDbLine
 10
1004.941559849781
 20
264.8629866773951
 30
0.0
 11
994.9415598497818
 21
264.8629866773951
 31
0.0
  0
ARC
  5
16E
100
AcDbEntity
  8
FILTERS
100
AcDbCircle
 10
1004.941559849781
 20
258.8629866773952
 30
0.0
 40
6.0
100
AcDbArc
 50
270.0
 51
90.0
  0
ARC
  5
16F
100
AcDbEntity
  8
FILTERS
100
AcDbCircle
 10
994.9415598497818
 20
258.8629866773952
 30
0.0
 40
6.0
100
AcDbArc
 50
89.99999999999994
 51
270.0
  0
LINE
  5
170
100
AcDbEntity
  8
FILTERS
  6
CONTINUOUS
 62
     7
100
AcDbLine
 10
951.941559849782
 20
245.3629866773674
 30
0.0
 11
979.9415598497832
 21
245.3629866773675
 31
0.0
  0
LINE
  5
171
100
AcDbEntity
  8
FILTERS
  6
CONTINUOUS
 62
     7
100
AcDbLine
 10
1091.941559849782
 20
245.3629866773675
 30
0.0
 11
1231.941559849782
 21
245.3629866773676
 31
0.0
  0
LINE
  5
172
100
AcDbEntity
  8
AXES
  6
CONTINUOUS
100
AcDbLine
 10
999.9415598497821
 20
218.4365729795855
 30
0.0
 11
999.9415598497817
 21
298.2741694388643
 31
0.0
  0
LINE
  5
173
100
AcDbEntity
  8
FILTERS
  6
CONTINUOUS
 62
     7
100
AcDbLine
 10
-221.0180222550535
 20
245.3629866773676
 30
0.0
 11
-221.0180222550526
 21
280.3629866773673
 31
0.0
  0
LINE
  5
174
100
AcDbEntity
  8
FILTERS
  6
CONTINUOUS
 62
     7
100
AcDbLine
 10
-496.8226153175321
 20
245.3629866773675
 30
0.0
 11
-221.0180222550531
 21
245.3629866773676
 31
0.0
  0
LINE
  5
175
100
AcDbEntity
  8
FILTERS
  6
CONTINUOUS
100
AcDbLine
 10
-499.7055222550526
 20
243.862986677367
 30
0.0
 11
-413.518022255053
 21
145.3629866773676
 31
0.0
  0
LINE
  5
176
100
AcDbEntity
  8
FILTERS
  6
CONTINUOUS
100
AcDbLine
 10
-221.0180222550531
 20
245.3629866773676
 30
0.0
 11
-308.5180222550531
 21
145.3629866773676
 31
0.0
  0
LINE
  5
177
100
AcDbEntity
  8
FILTERS
  6
CONTINUOUS
 62
     7
100
AcDbLine
 10
-308.5180222550531
 20
132.3629866773675
 30
0.0
 11
-308.5180222550531
 21
145.3629866773676
 31
0.0
  0
LINE
  5
178
100
AcDbEntity
  8
FILTERS
  6
CONTINUOUS
 62
     7
100
AcDbLine
 10
-413.5180222550533
 20
132.3629866773675
 30
0.0
 11
-413.518022255053
 21
145.3629866773676
 31
0.0
  0
LINE
  5
179
100
AcDbEntity
  8
FILTERS
  6
CONTINUOUS
 62
     7
100
AcDbLine
 10
-308.5180222550531
 20
145.3629866773676
 30
0.0
 11
-413.518022255053
 21
145.3629866773676
 31
0.0
  0
LINE
  5
17A
100
AcDbEntity
  8
FILTERS
  6
CONTINUOUS
 62
     7
100
AcDbLine
 10
-414.5180222550538
 20
122.3629866773676
 30
0.0
 11
-307.5180222550526
 21
122.3629866773676
 31
0.0
  0
LINE
  5
17B
100
AcDbEntity
  8
FILTERS
  6
CONTINUOUS
 62
     7
100
AcDbLine
 10
-305.5180222550523
 20
124.3629866773676
 30
0.0
 11
-305.5180222550526
 21
132.3629866773675
 31
0.0
  0
LINE
  5
17C
100
AcDbEntity
  8
FILTERS
  6
CONTINUOUS
 62
     7
100
AcDbLine
 10
-416.518022255054
 20
124.3629866773678
 30
0.0
 11
-416.5180222550531
 21
132.3629866773675
 31
0.0
  0
LINE
  5
17D
100
AcDbEntity
  8
FILTERS
  6
CONTINUOUS
 62
     7
100
AcDbLine
 10
-416.5180222550537
 20
132.3629866773675
 30
0.0
 11
-305.5180222550521
 21
132.3629866773675
 31
0.0
  0
ARC
  5
17E
100
AcDbEntity
  8
FILTERS
  6
CONTINUOUS
 62
     7
100
AcDbCircle
 10
-414.5180222550538
 20
124.3629866773676
 30
0.0
 40
1.999999999999999
100
AcDbArc
 50
179.9999999999928
 51
270.0
  0
ARC
  5
17F
100
AcDbEntity
  8
FILTERS
  6
CONTINUOUS
 62
     7
100
AcDbCircle
 10
-307.5180222550526
 20
124.3629866773676
 30
0.0
 40
1.999999999999999
100
AcDbArc
 50
270.0
 51
0.0000000000019185
  0
LINE
  5
180
100
AcDbEntity
  8
AXES
  6
CONTINUOUS
100
AcDbLine
 10
-361.0180222550531
 20
61.45902011821379
 30
0.0
 11
-361.0180222550531
 21
628.6483480508937
 31
0.0
  0
LINE
  5
181
100
AcDbEntity
  8
FILTERS
100
AcDbLine
 10
-535.0180222550522
 20
534.5894839854715
 30
0.0
 11
-525.0180222550546
 21
534.589483985471
 31
0.0
  0
LINE
  5
182
100
AcDbEntity
  8
FILTERS
100
AcDbLine
 10
-535.0180222550522
 20
546.1364893692639
 30
0.0
 11
-525.0180222550546
 21
546.1364893692643
 31
0.0
  0
LWPOLYLINE
  5
183
100
AcDbEntity
  8
FILTERS
100
AcDbPolyline
 90
        4
 70
     1
 43
0.0
 10
-535.0180222550535
 20
551.90999206116
 10
-525.0180222550534
 20
551.90999206116
 10
-525.0180222550534
 20
528.815981293575
 10
-535.0180222550535
 20
528.815981293575
  0
LINE
  5
184
100
AcDbEntity
  8
FILTERS
  6
CONTINUOUS
 62
     7
100
AcDbLine
 10
-525.0180222550534
 20
471.3629866773676
 30
0.0
 11
-525.0180222550534
 21
565.3629866773666
 31
0.0
  0
LINE
  5
185
100
AcDbEntity
  8
FILTERS
100
AcDbLine
 10
-535.0180222550522
 20
484.5894839854715
 30
0.0
 11
-525.0180222550546
 21
484.589483985471
 31
0.0
  0
LINE
  5
186
100
AcDbEntity
  8
FILTERS
100
AcDbLine
 10
-535.0180222550522
 20
496.1364893692639
 30
0.0
 11
-525.0180222550546
 21
496.1364893692643
 31
0.0
  0
LWPOLYLINE
  5
187
100
AcDbEntity
  8
FILTERS
100
AcDbPolyline
 90
        4
 70
     1
 43
0.0
 10
-535.0180222550535
 20
501.90999206116
 10
-525.0180222550534
 20
501.90999206116
 10
-525.0180222550534
 20
478.815981293575
 10
-535.0180222550535
 20
478.815981293575
  0
LINE
  5
188
100
AcDbEntity
  8
AXES
  6
CONTINUOUS
100
AcDbLine
 10
-499.7893288603217
 20
540.3629866773675
 30
0.0
 11
-561.4496741240571
 21
540.3629866773675
 31
0.0
  0
LINE
  5
189
100
AcDbEntity
  8
AXES
  6
CONTINUOUS
100
AcDbLine
 10
-501.0713801423729
 20
490.3629866773674
 30
0.0
 11
-562.0825855164619
 21
490.3629866773674
 31
0.0
  0
LINE
  5
18A
100
AcDbEntity
  8
FILTERS
  6
CONTINUOUS
100
AcDbLine
 10
-529.0180222550536
 20
467.3629866773674
 30
0.0
 11
-533.5180222550539
 21
467.3629866773674
 31
0.0
  0
LINE
  5
18B
100
AcDbEntity
  8
FILTERS
  6
CONTINUOUS
100
AcDbLine
 10
-529.0180222550534
 20
463.3629866773674
 30
0.0
 11
-533.5180222550532
 21
463.3629866773674
 31
0.0
  0
LINE
  5
18C
100
AcDbEntity
  8
FILTERS
  6
CONTINUOUS
 62
     7
100
AcDbLine
 10
-537.5180222550523
 20
418.3629866774701
 30
0.0
 11
-537.5180222550526
 21
459.3629866773676
 31
0.0
  0
LINE
  5
18D
100
AcDbEntity
  8
FILTERS
  6
CONTINUOUS
 62
     7
100
AcDbLine
 10
-541.5180222550527
 20
418.3629866774719
 30
0.0
 11
-541.5180222550527
 21
459.362986677368
 31
0.0
  0
LINE
  5
18E
100
AcDbEntity
  8
FILTERS
  6
CONTINUOUS
100
AcDbLine
 10
-589.518022255055
 20
414.3629866774733
 30
0.0
 11
-545.5180222550526
 21
414.3629866774717
 31
0.0
  0
LINE
  5
18F
100
AcDbEntity
  8
FILTERS
  6
CONTINUOUS
100
AcDbLine
 10
-589.518022255055
 20
410.3629866774729
 30
0.0
 11
-545.5180222550536
 21
410.3629866774715
 31
0.0
  0
ARC
  5
190
100
AcDbEntity
  8
FILTERS
  6
CONTINUOUS
100
AcDbCircle
 10
-545.5180222550533
 20
418.3629866774699
 30
0.0
 40
7.999999999999999
100
AcDbArc
 50
270.0
 51
0.0
  0
LINE
  5
191
100
AcDbEntity
  8
FILTERS
100
AcDbLine
 10
-589.5180222550534
 20
410.362986677471
 30
0.0
 11
-589.5180222550552
 21
414.3629866774729
 31
0.0
  0
ARC
  5
192
100
AcDbEntity
  8
FILTERS
  6
CONTINUOUS
100
AcDbCircle
 10
-529.0180222550534
 20
471.3629866773704
 30
0.0
 40
7.999999999999999
100
AcDbArc
 50
270.0
 51
0.0
  0
ARC
  5
193
100
AcDbEntity
  8
FILTERS
  6
CONTINUOUS
100
AcDbCircle
 10
-545.5180222550526
 20
418.3629866774719
 30
0.0
 40
3.999999999999999
100
AcDbArc
 50
270.0
 51
0.0
  0
ARC
  5
194
100
AcDbEntity
  8
FILTERS
  6
CONTINUOUS
100
AcDbCircle
 10
-529.0180222550532
 20
471.3629866773676
 30
0.0
 40
3.999999999999999
100
AcDbArc
 50
270.0
 51
0.0
  0
ARC
  5
195
100
AcDbEntity
  8
FILTERS
  6
CONTINUOUS
100
AcDbCircle
 10
-533.5180222550532
 20
459.3629866773676
 30
0.0
 40
3.999999999999999
100
AcDbArc
 50
90.00000000000005
 51
180.0
  0
ARC
  5
196
100
AcDbEntity
  8
FILTERS
  6
CONTINUOUS
100
AcDbCircle
 10
-533.5180222550539
 20
459.362986677368
 30
0.0
 40
7.999999999999999
100
AcDbArc
 50
90.00000000000005
 51
180.0
  0
LWPOLYLINE
  5
197
100
AcDbEntity
  8
FILTERS
100
AcDbPolyline
 90
        4
 70
     1
 43
0.0
 10
-537.0180222550476
 20
243.8629866773675
 10
-533.0180222550475
 20
243.8629866773675
 10
-533.0180222550475
 20
273.8629866773674
 10
-537.0180222550476
 20
273.8629866773674
  0
LINE
  5
198
100
AcDbEntity
  8
FILTERS
100
AcDbLine
 10
-533.0180222550475
 20
243.8629866773675
 30
0.0
 11
-496.8226153175321
 21
243.8629866773673
 31
0.0
  0
LINE
  5
199
100
AcDbEntity
  8
FILTERS
100
AcDbLine
 10
-533.0180222550475
 20
273.8629866773674
 30
0.0
 11
-496.8226153175321
 21
273.8629866773674
 31
0.0
  0
LINE
  5
19A
100
AcDbEntity
  8
FILTERS
100
AcDbLine
 10
-496.8226153175325
 20
243.8629866773674
 30
0.0
 11
-496.8226153175325
 21
273.8629866773674
 31
0.0
  0
LINE
  5
19B
100
AcDbEntity
  8
ARMOUR
  6
CONTINUOUS
 62
     7
100
AcDbLine
 10
-557.0180222550518
 20
101.913699022919
 30
0.0
 11
-557.0180222550546
 21
390.3629866774734
 31
0.0
  0
LINE
  5
19C
100
AcDbEntity
  8
ARMOUR
  6
CONTINUOUS
 62
     7
100
AcDbLine
 10
-637.0180222550537
 20
174.9627334012349
 30
0.0
 11
-637.0180222550509
 21
334.7211910461075
 31
0.0
  0
LINE
  5
19D
100
AcDbEntity
  8
ARMOUR
  6
CONTINUOUS
100
AcDbLine
 10
-637.0180222550451
 20
334.7211910460995
 30
0.0
 11
-597.5104886312463
 21
340.9785696477162
 31
0.0
  0
LINE
  5
19E
100
AcDbEntity
  8
ARMOUR
  6
CONTINUOUS
100
AcDbLine
 10
-597.5104886312463
 20
340.9785696477168
 30
0.0
 11
-605.3322118832572
 21
390.3629866774734
 31
0.0
  0
LINE
  5
19F
100
AcDbEntity
  8
ARMOUR
  6
CONTINUOUS
100
AcDbLine
 10
-605.3322118832572
 20
390.3629866774734
 30
0.0
 11
-557.0180222550546
 21
390.3629866774734
 31
0.0
  0
LINE
  5
1A0
100
AcDbEntity
  8
ARMOUR
  6
CONTINUOUS
100
AcDbLine
 10
-601.4213502572056
 20
365.6707781626749
 30
0.0
 11
-557.0180222550546
 21
372.7035744167684
 31
0.0
  0
LINE
  5
1A1
100
AcDbEntity
  8
ARMOUR
  6
CONTINUOUS
100
AcDbLine
 10
-557.0180222550546
 20
390.3629866774734
 30
0.0
 11
-557.0180222550546
 21
410.3629866774731
 31
0.0
  0
LINE
  5
1A2
100
AcDbEntity
  8
ARMOUR
  6
CONTINUOUS
100
AcDbLine
 10
-557.0180222550546
 20
410.3629866774731
 30
0.0
 11
-592.0180222550554
 21
410.3629866774731
 31
0.0
  0
LINE
  5
1A3
100
AcDbEntity
  8
ARMOUR
  6
CONTINUOUS
100
AcDbLine
 10
-592.0180222550554
 20
410.3629866774731
 30
0.0
 11
-592.0180222550554
 21
390.3629866774156
 31
0.0
  0
LWPOLYLINE
  5
1A4
100
AcDbEntity
  8
ARMOUR
  6
CONTINUOUS
100
AcDbPolyline
 90
        4
 70
     1
 43
0.0
 10
-557.0180222550633
 20
240.7007287968276
 10
-537.0180222550476
 20
240.7007287968276
 10
-537.0180222550476
 20
275.7007287967705
 10
-557.0180222550633
 20
275.7007287967705
  0
LINE
  5
1A5
100
AcDbEntity
  8
FILTERS
100
AcDbLine
 10
-535.0180222550545
 20
546.3629866773676
 30
0.0
 11
-543.2848723935043
 21
546.3629866773676
 31
0.0
  0
LINE
  5
1A6
100
AcDbEntity
  8
FILTERS
100
AcDbLine
 10
-535.0180222550545
 20
534.3629866773676
 30
0.0
 11
-543.2848723935043
 21
534.3629866773676
 31
0.0
  0
ARC
  5
1A7
100
AcDbEntity
  8
FILTERS
100
AcDbCircle
 10
-533.7657326210504
 20
540.3629866773675
 30
0.0
 40
11.2522896340041
100
AcDbArc
 50
147.7763977020394
 51
212.223602297961
  0
LINE
  5
1A8
100
AcDbEntity
  8
FILTERS
100
AcDbLine
 10
-535.0180222550545
 20
496.3629866773676
 30
0.0
 11
-543.2848723935043
 21
496.3629866773676
 31
0.0
  0
LINE
  5
1A9
100
AcDbEntity
  8
FILTERS
100
AcDbLine
 10
-535.0180222550545
 20
484.3629866773676
 30
0.0
 11
-543.2848723935043
 21
484.3629866773676
 31
0.0
  0
ARC
  5
1AA
100
AcDbEntity
  8
FILTERS
100
AcDbCircle
 10
-533.7657326210504
 20
490.3629866773676
 30
0.0
 40
11.2522896340041
100
AcDbArc
 50
147.7763977020394
 51
212.223602297961
  0
LINE
  5
1AB
100
AcDbEntity
  8
FILTERS
  6
CONTINUOUS
100
AcDbLine
 10
-528.0180222550531
 20
280.3629866773675
 30
0.0
 11
-521.0180222550532
 21
282.3629866773675
 31
0.0
  0
LINE
  5
1AC
100
AcDbEntity
  8
FILTERS
  6
CONTINUOUS
 62
     7
100
AcDbLine
 10
-521.0180222550532
 20
282.3629866773675
 30
0.0
 11
-201.0180222550529
 21
282.3629866773675
 31
0.0
  0
LINE
  5
1AD
100
AcDbEntity
  8
FILTERS
  6
CONTINUOUS
 62
     7
100
AcDbLine
 10
-528.0180222550528
 20
280.3629866773673
 30
0.0
 11
-194.0180222550527
 21
280.3629866773673
 31
0.0
  0
LINE
  5
1AE
100
AcDbEntity
  8
FILTERS
  6
CONTINUOUS
100
AcDbLine
 10
-194.018022255053
 20
280.3629866773675
 30
0.0
 11
-201.0180222550529
 21
282.3629866773675
 31
0.0
  0
LINE
  5
1AF
100
AcDbEntity
  8
FILTERS
  6
CONTINUOUS
 62
     7
100
AcDbLine
 10
-501.0180222550534
 20
273.8629866773671
 30
0.0
 11
-501.0180222550535
 21
280.3629866773673
 31
0.0
  0
LINE
  5
1B0
100
AcDbEntity
  8
FILTERS
  6
CONTINUOUS
100
AcDbLine
 10
-528.0180222550529
 20
440.3629866773672
 30
0.0
 11
-521.0180222550531
 21
442.3629866773672
 31
0.0
  0
LINE
  5
1B1
100
AcDbEntity
  8
FILTERS
  6
CONTINUOUS
100
AcDbLine
 10
-528.0180222550529
 20
440.3629866773672
 30
0.0
 11
-521.0180222550531
 21
438.3629866773672
 31
0.0
  0
LINE
  5
1B2
100
AcDbEntity
  8
FILTERS
  6
CONTINUOUS
 62
     7
100
AcDbLine
 10
-521.0180222550531
 20
442.3629866773672
 30
0.0
 11
-201.0180222550475
 21
442.3629866773665
 31
0.0
  0
LINE
  5
1B3
100
AcDbEntity
  8
FILTERS
  6
CONTINUOUS
 62
     7
100
AcDbLine
 10
-528.0180222550529
 20
440.3629866773672
 30
0.0
 11
-194.0180222550533
 21
440.3629866773683
 31
0.0
  0
LINE
  5
1B4
100
AcDbEntity
  8
FILTERS
  6
CONTINUOUS
 62
     7
100
AcDbLine
 10
-521.0180222550531
 20
438.3629866773672
 30
0.0
 11
-201.0180222550522
 21
438.3629866773676
 31
0.0
  0
LINE
  5
1B5
100
AcDbEntity
  8
FILTERS
  6
CONTINUOUS
100
AcDbLine
 10
-194.0180222550531
 20
440.3629866773672
 30
0.0
 11
-201.018022255053
 21
442.3629866773672
 31
0.0
  0
LINE
  5
1B6
100
AcDbEntity
  8
FILTERS
  6
CONTINUOUS
100
AcDbLine
 10
-194.0180222550531
 20
440.3629866773672
 30
0.0
 11
-201.018022255053
 21
438.3629866773672
 31
0.0
  0
LINE
  5
1B7
100
AcDbEntity
  8
FILTERS
  6
CONTINUOUS
100
AcDbLine
 10
-528.0180222550529
 20
580.3629866773672
 30
0.0
 11
-521.0180222550531
 21
578.3629866773672
 31
0.0
  0
LINE
  5
1B8
100
AcDbEntity
  8
FILTERS
  6
CONTINUOUS
 62
     7
100
AcDbLine
 10
-528.0180222550529
 20
580.3629866773674
 30
0.0
 11
-194.0180222550546
 21
580.3629866773674
 31
0.0
  0
LINE
  5
1B9
100
AcDbEntity
  8
FILTERS
  6
CONTINUOUS
 62
     7
100
AcDbLine
 10
-521.0180222550531
 20
578.3629866773672
 30
0.0
 11
-201.018022255054
 21
578.3629866773672
 31
0.0
  0
LINE
  5
1BA
100
AcDbEntity
  8
FILTERS
  6
CONTINUOUS
100
AcDbLine
 10
-194.0180222550531
 20
580.3629866773672
 30
0.0
 11
-201.018022255053
 21
578.3629866773672
 31
0.0
  0
LINE
  5
1BB
100
AcDbEntity
  8
FILTERS
  6
CONTINUOUS
 62
     7
100
AcDbLine
 10
-521.0180222550527
 20
282.3629866773673
 30
0.0
 11
-521.0180222550531
 21
438.3629866773672
 31
0.0
  0
LINE
  5
1BC
100
AcDbEntity
  8
FILTERS
  6
CONTINUOUS
 62
     7
100
AcDbLine
 10
-521.0180222550532
 20
442.3629866773672
 30
0.0
 11
-521.0180222550535
 21
578.3629866773671
 31
0.0
  0
LINE
  5
1BD
100
AcDbEntity
  8
FILTERS
  6
CONTINUOUS
 62
     7
100
AcDbLine
 10
-201.0180222550533
 20
282.3629866773673
 30
0.0
 11
-201.018022255053
 21
438.3629866773672
 31
0.0
  0
LINE
  5
1BE
100
AcDbEntity
  8
FILTERS
  6
CONTINUOUS
 62
     7
100
AcDbLine
 10
-201.0180222550528
 20
442.3629866773672
 30
0.0
 11
-201.0180222550526
 21
578.3629866773671
 31
0.0
  0
LINE
  5
1BF
100
AcDbEntity
  8
FILTERS
100
AcDbLine
 10
-525.0180222550534
 20
565.3629866773666
 30
0.0
 11
-521.0180222550536
 21
565.3629866773666
 31
0.0
  0
LWPOLYLINE
  5
1C0
100
AcDbEntity
  8
FILTERS
100
AcDbPolyline
 90
        6
 70
     1
 43
0.0
 10
-186.0180222550529
 20
302.3629866773667
 42
0.4142135623731013
 10
-184.018022255053
 20
304.3629866773666
 10
-184.0180222550534
 20
411.3629866773695
 42
0.4142135623731013
 10
-186.0180222550533
 20
413.3629866773699
 10
-194.0180222550531
 20
413.3629866773669
 10
-194.0180222550531
 20
302.362986677367
  0
ARC
  5
1C1
100
AcDbEntity
  8
FILTERS
100
AcDbCircle
 10
-689.2680222550652
 20
357.8629866773665
 30
0.0
 40
507.2500000000121
100
AcDbArc
 50
354.9103912403741
 51
5.089608759626313
  0
LINE
  5
1C2
100
AcDbEntity
  8
FILTERS
100
AcDbLine
 10
-194.0180222550531
 20
410.3629866773669
 30
0.0
 11
-201.0180222550531
 21
410.3629866773669
 31
0.0
  0
LINE
  5
1C3
100
AcDbEntity
  8
FILTERS
100
AcDbLine
 10
-194.0180222550531
 20
305.3629866773669
 30
0.0
 11
-201.0180222550531
 21
305.3629866773669
 31
0.0
  0
TEXT
  5
1C5
100
AcDbEntity
  8
COMMENTS
100
AcDbText
 10
-644.2981354960346
 20
-334.8255339328551
 30
0.0
 40
19.99999999999999
  1
Drg version 1.0 / 4 Nov 2013
 41
0.6000000000000001
  7
ARIAL
 11
-644.2981354960346
 21
-334.8255339328551
 31
0.0
100
AcDbText
 73
     1
  0
ENDSEC
  0
SECTION
  2
OBJECTS
  0
DICTIONARY
  5
C
100
AcDbDictionary
  3
ACAD_GROUP
350
D
  3
ACAD_MLINESTYLE
350
1B
  3
ACDBVARIABLEDICTIONARY
350
1E
  0
DICTIONARY
  5
D
102
{ACAD_REACTORS
330
C
102
}
100
AcDbDictionary
  0
DICTIONARY
  5
1B
102
{ACAD_REACTORS
330
C
102
}
100
AcDbDictionary
  3
STANDARD
350
1C
  0
DICTIONARY
  5
1E
102
{ACAD_REACTORS
330
C
102
}
100
AcDbDictionary
  3
DIMADEC
350
1F
  0
MLINESTYLE
  5
1C
102
{ACAD_REACTORS
330
1B
102
}
100
AcDbMlineStyle
  2
STANDARD
 70
     0
  3

 62
   256
 51
90.0
 52
90.0
 71
     2
 49
0.5
 62
   256
  6
BYLAYER
 49
-0.5
 62
   256
  6
BYLAYER
  0
DICTIONARYVAR
  5
1F
102
{ACAD_REACTORS
330
1E
102
}
100
DictionaryVariables
280
     0
  1
-1
  0
ENDSEC
  0
EOF
