  0
SECTION
  2
HEADER
  9
$ACADVER
  1
AC1014
  9
$ACADMAINTVER
 70
     5
  9
$DWGCODEPAGE
  3
ANSI_1252
  9
$INSBASE
 10
0.0
 20
0.0
 30
0.0
  9
$EXTMIN
 10
1.000000000000000E+20
 20
1.000000000000000E+20
 30
1.000000000000000E+20
  9
$EXTMAX
 10
-1.000000000000000E+20
 20
-1.000000000000000E+20
 30
-1.000000000000000E+20
  9
$LIMMIN
 10
0.0
 20
0.0
  9
$LIMMAX
 10
12.0
 20
9.0
  9
$ORTHOMODE
 70
     0
  9
$REGENMODE
 70
     1
  9
$FILLMODE
 70
     1
  9
$QTEXTMODE
 70
     0
  9
$MIRRTEXT
 70
     1
  9
$DRAGMODE
 70
     2
  9
$LTSCALE
 40
1.0
  9
$OSMODE
 70
     0
  9
$ATTMODE
 70
     0
  9
$TEXTSIZE
 40
77.43169389305414
  9
$TRACEWID
 40
0.05
  9
$TEXTSTYLE
  7
STANDARD
  9
$CLAYER
  8
0
  9
$CELTYPE
  6
BYLAYER
  9
$CECOLOR
 62
   256
  9
$CELTSCALE
 40
1.0
  9
$DELOBJ
 70
     1
  9
$DISPSILH
 70
     0
  9
$DIMSCALE
 40
1.0
  9
$DIMASZ
 40
0.18
  9
$DIMEXO
 40
0.0625
  9
$DIMDLI
 40
0.38
  9
$DIMRND
 40
0.0
  9
$DIMDLE
 40
0.0
  9
$DIMEXE
 40
0.18
  9
$DIMTP
 40
0.0
  9
$DIMTM
 40
0.0
  9
$DIMTXT
 40
0.3048491885553313
  9
$DIMCEN
 40
0.09
  9
$DIMTSZ
 40
0.0
  9
$DIMTOL
 70
     0
  9
$DIMLIM
 70
     0
  9
$DIMTIH
 70
     1
  9
$DIMTOH
 70
     1
  9
$DIMSE1
 70
     0
  9
$DIMSE2
 70
     0
  9
$DIMTAD
 70
     0
  9
$DIMZIN
 70
     0
  9
$DIMBLK
  1

  9
$DIMASO
 70
     1
  9
$DIMSHO
 70
     1
  9
$DIMPOST
  1

  9
$DIMAPOST
  1

  9
$DIMALT
 70
     0
  9
$DIMALTD
 70
     2
  9
$DIMALTF
 40
25.4
  9
$DIMLFAC
 40
1.0
  9
$DIMTOFL
 70
     0
  9
$DIMTVP
 40
0.0
  9
$DIMTIX
 70
     0
  9
$DIMSOXD
 70
     0
  9
$DIMSAH
 70
     0
  9
$DIMBLK1
  1

  9
$DIMBLK2
  1

  9
$DIMSTYLE
  2
STANDARD
  9
$DIMCLRD
 70
     0
  9
$DIMCLRE
 70
     0
  9
$DIMCLRT
 70
     0
  9
$DIMTFAC
 40
1.0
  9
$DIMGAP
 40
0.09
  9
$DIMJUST
 70
     0
  9
$DIMSD1
 70
     0
  9
$DIMSD2
 70
     0
  9
$DIMTOLJ
 70
     1
  9
$DIMTZIN
 70
     0
  9
$DIMALTZ
 70
     0
  9
$DIMALTTZ
 70
     0
  9
$DIMFIT
 70
     3
  9
$DIMUPT
 70
     0
  9
$DIMUNIT
 70
     4
  9
$DIMDEC
 70
    -1
  9
$DIMTDEC
 70
     4
  9
$DIMALTU
 70
     2
  9
$DIMALTTD
 70
     2
  9
$DIMTXSTY
  7
STANDARD
  9
$DIMAUNIT
 70
     1
  9
$LUNITS
 70
     2
  9
$LUPREC
 70
     0
  9
$SKETCHINC
 40
0.1
  9
$FILLETRAD
 40
4.999999999999999
  9
$AUNITS
 70
     0
  9
$AUPREC
 70
     2
  9
$MENU
  1
.
  9
$ELEVATION
 40
0.0
  9
$PELEVATION
 40
0.0
  9
$THICKNESS
 40
0.0
  9
$LIMCHECK
 70
     0
  9
$BLIPMODE
 70
     0
  9
$CHAMFERA
 40
3.0
  9
$CHAMFERB
 40
3.0
  9
$CHAMFERC
 40
0.0
  9
$CHAMFERD
 40
0.0
  9
$SKPOLY
 70
     0
  9
$TDCREATE
 40
0.0000000000
  9
$TDUPDATE
 40
0.0000000000
  9
$TDINDWG
 40
0.0000000000
  9
$TDUSRTIMER
 40
0.0000000000
  9
$USRTIMER
 70
     1
  9
$ANGBASE
 50
0.0
  9
$ANGDIR
 70
     0
  9
$PDMODE
 70
     0
  9
$PDSIZE
 40
0.0
  9
$PLINEWID
 40
0.0
  9
$COORDS
 70
     1
  9
$SPLFRAME
 70
     0
  9
$SPLINETYPE
 70
     6
  9
$SPLINESEGS
 70
     8
  9
$ATTDIA
 70
     0
  9
$ATTREQ
 70
     1
  9
$HANDLING
 70
     1
  9
$HANDSEED
  5
150
  9
$SURFTAB1
 70
     6
  9
$SURFTAB2
 70
     6
  9
$SURFTYPE
 70
     6
  9
$SURFU
 70
     6
  9
$SURFV
 70
     6
  9
$UCSNAME
  2

  9
$UCSORG
 10
0.0
 20
0.0
 30
0.0
  9
$UCSXDIR
 10
1.0
 20
0.0
 30
0.0
  9
$UCSYDIR
 10
0.0
 20
1.0
 30
0.0
  9
$PUCSNAME
  2

  9
$PUCSORG
 10
0.0
 20
0.0
 30
0.0
  9
$PUCSXDIR
 10
1.0
 20
0.0
 30
0.0
  9
$PUCSYDIR
 10
0.0
 20
1.0
 30
0.0
  9
$USERI1
 70
     0
  9
$USERI2
 70
     0
  9
$USERI3
 70
     0
  9
$USERI4
 70
     0
  9
$USERI5
 70
     0
  9
$USERR1
 40
0.0
  9
$USERR2
 40
0.0
  9
$USERR3
 40
0.0
  9
$USERR4
 40
0.0
  9
$USERR5
 40
0.0
  9
$WORLDVIEW
 70
     1
  9
$SHADEDGE
 70
     3
  9
$SHADEDIF
 70
    70
  9
$TILEMODE
 70
     1
  9
$MAXACTVP
 70
    48
  9
$PINSBASE
 10
0.0
 20
0.0
 30
0.0
  9
$PLIMCHECK
 70
     0
  9
$PEXTMIN
 10
1.000000000000000E+20
 20
1.000000000000000E+20
 30
1.000000000000000E+20
  9
$PEXTMAX
 10
-1.000000000000000E+20
 20
-1.000000000000000E+20
 30
-1.000000000000000E+20
  9
$PLIMMIN
 10
0.0
 20
0.0
  9
$PLIMMAX
 10
12.0
 20
9.0
  9
$UNITMODE
 70
     0
  9
$VISRETAIN
 70
     1
  9
$PLINEGEN
 70
     0
  9
$PSLTSCALE
 70
     1
  9
$TREEDEPTH
 70
  3020
  9
$PICKSTYLE
 70
     1
  9
$CMLSTYLE
  2
STANDARD
  9
$CMLJUST
 70
     0
  9
$CMLSCALE
 40
1.0
  9
$PROXYGRAPHICS
 70
     1
  9
$MEASUREMENT
 70
     0
  0
ENDSEC
  0
SECTION
  2
CLASSES
  0
CLASS
  1
DICTIONARYVAR
  2
AcDbDictionaryVar
  3
"AutoCAD"
 90
        0
280
     0
281
     0
  0
CLASS
  1
LWPOLYLINE
  2
AcDbPolyline
  3
"AutoCAD"
 90
        0
280
     0
281
     1
  0
ENDSEC
  0
SECTION
  2
TABLES
  0
TABLE
  2
VPORT
  5
8
100
AcDbSymbolTable
 70
     1
  0
VPORT
  5
11
100
AcDbSymbolTableRecord
100
AcDbViewportTableRecord
  2
*ACTIVE
 70
     0
 10
0.0
 20
0.0
 11
1.0
 21
1.0
 12
3.6
 22
4.5
 13
0.0
 23
0.0
 14
1.0
 24
1.0
 15
0.0
 25
0.0
 16
0.0
 26
0.0
 36
1.0
 17
0.0
 27
0.0
 37
0.0
 40
15.0
 41
0.8
 42
50.0
 43
0.0
 44
0.0
 50
0.0
 51
0.0
 71
     0
 72
   100
 73
     1
 74
     1
 75
     0
 76
     0
 77
     0
 78
     0
  0
ENDTAB
  0
TABLE
  2
LTYPE
  5
5
100
AcDbSymbolTable
 70
    40
  0
LTYPE
  5
12
100
AcDbSymbolTableRecord
100
AcDbLinetypeTableRecord
  2
BYBLOCK
 70
     0
  3

 72
    65
 73
     0
 40
0.0
  0
LTYPE
  5
13
100
AcDbSymbolTableRecord
100
AcDbLinetypeTableRecord
  2
BYLAYER
 70
     0
  3

 72
    65
 73
     0
 40
0.0
  0
LTYPE
  5
14
100
AcDbSymbolTableRecord
100
AcDbLinetypeTableRecord
  2
CONTINUOUS
 70
     0
  3
Solid line
 72
    65
 73
     0
 40
0.0
  0
LTYPE
  5
20
100
AcDbSymbolTableRecord
100
AcDbLinetypeTableRecord
  2
HIDDEN
 70
     0
  3
_ _ _ _ _ _ _ _ _ _ _ _ _ _ 
 72
    65
 73
     2
 40
9.524999999999998
 49
6.349999999999999
 74
     0
 49
-3.174999999999999
 74
     0
  0
LTYPE
  5
21
100
AcDbSymbolTableRecord
100
AcDbLinetypeTableRecord
  2
DASHED
 70
     0
  3
__ __ __ __ __ __ __ __ __ 
 72
    65
 73
     2
 40
19.04999999999999
 49
12.7
 74
     0
 49
-6.349999999999999
 74
     0
  0
LTYPE
  5
22
100
AcDbSymbolTableRecord
100
AcDbLinetypeTableRecord
  2
CENTER
 70
     0
  3
____ _ ____ _ ____ _ ____ _ 
 72
    65
 73
     4
 40
50.8
 49
31.75
 74
     0
 49
-6.349999999999999
 74
     0
 49
6.349999999999999
 74
     0
 49
-6.349999999999999
 74
     0
  0
LTYPE
  5
23
100
AcDbSymbolTableRecord
100
AcDbLinetypeTableRecord
  2
PHANTOM
 70
     0
  3
_____ _ _ _____ _ _ _____ _ _ 
 72
    65
 73
     6
 40
63.50000000000001
 49
31.75
 74
     0
 49
-6.349999999999999
 74
     0
 49
6.349999999999999
 74
     0
 49
-6.349999999999999
 74
     0
 49
6.349999999999999
 74
     0
 49
-6.349999999999999
 74
     0
  0
LTYPE
  5
24
100
AcDbSymbolTableRecord
100
AcDbLinetypeTableRecord
  2
DOT
 70
     0
  3
...........................
 72
    65
 73
     2
 40
6.349999999999999
 49
0.0
 74
     0
 49
-6.349999999999999
 74
     0
  0
LTYPE
  5
25
100
AcDbSymbolTableRecord
100
AcDbLinetypeTableRecord
  2
DASHDOT
 70
     0
  3
__ . __ . __ . __ . __ . __ . 
 72
    65
 73
     4
 40
25.4
 49
12.7
 74
     0
 49
-6.349999999999999
 74
     0
 49
0.0
 74
     0
 49
-6.349999999999999
 74
     0
  0
LTYPE
  5
26
100
AcDbSymbolTableRecord
100
AcDbLinetypeTableRecord
  2
DIVIDE
 70
     0
  3
__ . . __ . . __ . . __ . . 
 72
    65
 73
     6
 40
31.75
 49
12.7
 74
     0
 49
-6.349999999999999
 74
     0
 49
0.0
 74
     0
 49
-6.349999999999999
 74
     0
 49
0.0
 74
     0
 49
-6.349999999999999
 74
     0
  0
LTYPE
  5
27
100
AcDbSymbolTableRecord
100
AcDbLinetypeTableRecord
  2
BORDER
 70
     0
  3
__ __ . __ __ . __ __ . __ __ .
 72
    65
 73
     6
 40
44.44999999999999
 49
12.7
 74
     0
 49
-6.349999999999999
 74
     0
 49
12.7
 74
     0
 49
-6.349999999999999
 74
     0
 49
0.0
 74
     0
 49
-6.349999999999999
 74
     0
  0
LTYPE
  5
28
100
AcDbSymbolTableRecord
100
AcDbLinetypeTableRecord
  2
BORDER2
 70
     0
  3
Border (.5x) __.__.__.__.__.__.
 72
    65
 73
     6
 40
0.875
 49
0.25
 74
     0
 49
-0.125
 74
     0
 49
0.25
 74
     0
 49
-0.125
 74
     0
 49
0.0
 74
     0
 49
-0.125
 74
     0
  0
LTYPE
  5
29
100
AcDbSymbolTableRecord
100
AcDbLinetypeTableRecord
  2
BORDERX2
 70
     0
  3
Border (2x) ____  ____  .  ____
 72
    65
 73
     6
 40
3.5
 49
1.0
 74
     0
 49
-0.5
 74
     0
 49
1.0
 74
     0
 49
-0.5
 74
     0
 49
0.0
 74
     0
 49
-0.5
 74
     0
  0
LTYPE
  5
2A
100
AcDbSymbolTableRecord
100
AcDbLinetypeTableRecord
  2
CENTER2
 70
     0
  3
Center (.5x) ___ _ ___ _ ___ _ 
 72
    65
 73
     4
 40
1.125
 49
0.75
 74
     0
 49
-0.125
 74
     0
 49
0.125
 74
     0
 49
-0.125
 74
     0
  0
LTYPE
  5
2B
100
AcDbSymbolTableRecord
100
AcDbLinetypeTableRecord
  2
CENTERX2
 70
     0
  3
Center (2x) ________  __  _____
 72
    65
 73
     4
 40
4.0
 49
2.5
 74
     0
 49
-0.5
 74
     0
 49
0.5
 74
     0
 49
-0.5
 74
     0
  0
LTYPE
  5
2C
100
AcDbSymbolTableRecord
100
AcDbLinetypeTableRecord
  2
DASHDOT2
 70
     0
  3
Dash dot (.5x) _._._._._._._._.
 72
    65
 73
     4
 40
0.5
 49
0.25
 74
     0
 49
-0.125
 74
     0
 49
0.0
 74
     0
 49
-0.125
 74
     0
  0
LTYPE
  5
2D
100
AcDbSymbolTableRecord
100
AcDbLinetypeTableRecord
  2
DASHDOTX2
 70
     0
  3
Dash dot (2x) ____  .  ____  . 
 72
    65
 73
     4
 40
2.0
 49
1.0
 74
     0
 49
-0.5
 74
     0
 49
0.0
 74
     0
 49
-0.5
 74
     0
  0
LTYPE
  5
2E
100
AcDbSymbolTableRecord
100
AcDbLinetypeTableRecord
  2
DASHED2
 70
     0
  3
Dashed (.5x) _ _ _ _ _ _ _ _ _ 
 72
    65
 73
     2
 40
0.375
 49
0.25
 74
     0
 49
-0.125
 74
     0
  0
LTYPE
  5
2F
100
AcDbSymbolTableRecord
100
AcDbLinetypeTableRecord
  2
DASHEDX2
 70
     0
  3
Dashed (2x) ____  ____  ____  _
 72
    65
 73
     2
 40
1.5
 49
1.0
 74
     0
 49
-0.5
 74
     0
  0
LTYPE
  5
30
100
AcDbSymbolTableRecord
100
AcDbLinetypeTableRecord
  2
DIVIDE2
 70
     0
  3
Divide (.5x) __..__..__..__..__
 72
    65
 73
     6
 40
0.625
 49
0.25
 74
     0
 49
-0.125
 74
     0
 49
0.0
 74
     0
 49
-0.125
 74
     0
 49
0.0
 74
     0
 49
-0.125
 74
     0
  0
LTYPE
  5
31
100
AcDbSymbolTableRecord
100
AcDbLinetypeTableRecord
  2
DIVIDEX2
 70
     0
  3
Divide (2x) ________  .  .  ___
 72
    65
 73
     6
 40
2.5
 49
1.0
 74
     0
 49
-0.5
 74
     0
 49
0.0
 74
     0
 49
-0.5
 74
     0
 49
0.0
 74
     0
 49
-0.5
 74
     0
  0
LTYPE
  5
32
100
AcDbSymbolTableRecord
100
AcDbLinetypeTableRecord
  2
DOT2
 70
     0
  3
Dot (.5x) .....................
 72
    65
 73
     2
 40
0.125
 49
0.0
 74
     0
 49
-0.125
 74
     0
  0
LTYPE
  5
33
100
AcDbSymbolTableRecord
100
AcDbLinetypeTableRecord
  2
DOTX2
 70
     0
  3
Dot (2x) .  .  .  .  .  .  .  .
 72
    65
 73
     2
 40
0.5
 49
0.0
 74
     0
 49
-0.5
 74
     0
  0
LTYPE
  5
34
100
AcDbSymbolTableRecord
100
AcDbLinetypeTableRecord
  2
HIDDEN2
 70
     0
  3
Hidden (.5x) _ _ _ _ _ _ _ _ _ 
 72
    65
 73
     2
 40
0.1875
 49
0.125
 74
     0
 49
-0.0625
 74
     0
  0
LTYPE
  5
35
100
AcDbSymbolTableRecord
100
AcDbLinetypeTableRecord
  2
HIDDENX2
 70
     0
  3
Hidden (2x) ____ ____ ____ ____
 72
    65
 73
     2
 40
0.75
 49
0.5
 74
     0
 49
-0.25
 74
     0
  0
LTYPE
  5
36
100
AcDbSymbolTableRecord
100
AcDbLinetypeTableRecord
  2
PHANTOM2
 70
     0
  3
Phantom (.5x) ___ _ _ ___ _ _ _
 72
    65
 73
     6
 40
1.25
 49
0.625
 74
     0
 49
-0.125
 74
     0
 49
0.125
 74
     0
 49
-0.125
 74
     0
 49
0.125
 74
     0
 49
-0.125
 74
     0
  0
LTYPE
  5
37
100
AcDbSymbolTableRecord
100
AcDbLinetypeTableRecord
  2
PHANTOMX2
 70
     0
  3
Phantom (2x) ____________    __
 72
    65
 73
     6
 40
5.0
 49
2.5
 74
     0
 49
-0.5
 74
     0
 49
0.5
 74
     0
 49
-0.5
 74
     0
 49
0.5
 74
     0
 49
-0.5
 74
     0
  0
LTYPE
  5
38
100
AcDbSymbolTableRecord
100
AcDbLinetypeTableRecord
  2
DOTS
 70
     0
  3
Dots - - - - - - - - - - - - - 
 72
    65
 73
     2
 40
0.1
 49
0.05
 74
     0
 49
-0.05
 74
     0
  0
LTYPE
  5
39
100
AcDbSymbolTableRecord
100
AcDbLinetypeTableRecord
  2
ACAD_ISO02W100
 70
     0
  3
__ __ __ __ __ __ __ __ __ __ _
 72
    65
 73
     2
 40
15.0
 49
12.0
 74
     0
 49
-3.0
 74
     0
  0
LTYPE
  5
3A
100
AcDbSymbolTableRecord
100
AcDbLinetypeTableRecord
  2
ACAD_ISO03W100
 70
     0
  3
__    __    __    __    __    _
 72
    65
 73
     2
 40
30.0
 49
12.0
 74
     0
 49
-18.0
 74
     0
  0
LTYPE
  5
3B
100
AcDbSymbolTableRecord
100
AcDbLinetypeTableRecord
  2
ACAD_ISO04W100
 70
     0
  3
____ . ____ . ____ . ____ . ___
 72
    65
 73
     4
 40
30.5
 49
24.0
 74
     0
 49
-3.0
 74
     0
 49
0.5
 74
     0
 49
-3.0
 74
     0
  0
LTYPE
  5
3C
100
AcDbSymbolTableRecord
100
AcDbLinetypeTableRecord
  2
ACAD_ISO05W100
 70
     0
  3
____ .. ____ .. ____ .. ____ ..
 72
    65
 73
     6
 40
34.0
 49
24.0
 74
     0
 49
-3.0
 74
     0
 49
0.5
 74
     0
 49
-3.0
 74
     0
 49
0.5
 74
     0
 49
-3.0
 74
     0
  0
LTYPE
  5
3D
100
AcDbSymbolTableRecord
100
AcDbLinetypeTableRecord
  2
ACAD_ISO06W100
 70
     0
  3
____ ... ____ ... ____ ... ____
 72
    65
 73
     6
 40
34.0
 49
24.0
 74
     0
 49
-3.0
 74
     0
 49
0.5
 74
     0
 49
-3.0
 74
     0
 49
0.5
 74
     0
 49
-3.0
 74
     0
  0
LTYPE
  5
3E
100
AcDbSymbolTableRecord
100
AcDbLinetypeTableRecord
  2
ACAD_ISO07W100
 70
     0
  3
. . . . . . . . . . . . . . . .
 72
    65
 73
     2
 40
3.5
 49
0.5
 74
     0
 49
-3.0
 74
     0
  0
LTYPE
  5
3F
100
AcDbSymbolTableRecord
100
AcDbLinetypeTableRecord
  2
ACAD_ISO08W100
 70
     0
  3
____ __ ____ __ ____ __ ____ __
 72
    65
 73
     4
 40
36.0
 49
24.0
 74
     0
 49
-3.0
 74
     0
 49
6.0
 74
     0
 49
-3.0
 74
     0
  0
LTYPE
  5
40
100
AcDbSymbolTableRecord
100
AcDbLinetypeTableRecord
  2
ACAD_ISO09W100
 70
     0
  3
____ __ __ ____ __ __ ____ __ _
 72
    65
 73
     6
 40
45.0
 49
24.0
 74
     0
 49
-3.0
 74
     0
 49
6.0
 74
     0
 49
-3.0
 74
     0
 49
6.0
 74
     0
 49
-3.0
 74
     0
  0
LTYPE
  5
41
100
AcDbSymbolTableRecord
100
AcDbLinetypeTableRecord
  2
ACAD_ISO10W100
 70
     0
  3
__ . __ . __ . __ . __ . __ . _
 72
    65
 73
     4
 40
18.5
 49
12.0
 74
     0
 49
-3.0
 74
     0
 49
0.5
 74
     0
 49
-3.0
 74
     0
  0
LTYPE
  5
42
100
AcDbSymbolTableRecord
100
AcDbLinetypeTableRecord
  2
ACAD_ISO11W100
 70
     0
  3
__ __ . __ __ . __ __ . __ __ .
 72
    65
 73
     6
 40
33.5
 49
12.0
 74
     0
 49
-3.0
 74
     0
 49
12.0
 74
     0
 49
-3.0
 74
     0
 49
0.5
 74
     0
 49
-3.0
 74
     0
  0
LTYPE
  5
43
100
AcDbSymbolTableRecord
100
AcDbLinetypeTableRecord
  2
ACAD_ISO12W100
 70
     0
  3
__ . . __ . . __ . . __ . . __ 
 72
    65
 73
     6
 40
22.0
 49
12.0
 74
     0
 49
-3.0
 74
     0
 49
0.5
 74
     0
 49
-3.0
 74
     0
 49
0.5
 74
     0
 49
-3.0
 74
     0
  0
LTYPE
  5
44
100
AcDbSymbolTableRecord
100
AcDbLinetypeTableRecord
  2
ACAD_ISO13W100
 70
     0
  3
__ __ . . __ __ . . __ __ . . _
 72
    65
 73
     6
 40
33.5
 49
12.0
 74
     0
 49
-3.0
 74
     0
 49
12.0
 74
     0
 49
-3.0
 74
     0
 49
0.5
 74
     0
 49
-3.0
 74
     0
  0
LTYPE
  5
45
100
AcDbSymbolTableRecord
100
AcDbLinetypeTableRecord
  2
ACAD_ISO14W100
 70
     0
  3
__ . . . __ . . . __ . . . __ .
 72
    65
 73
     6
 40
22.0
 49
12.0
 74
     0
 49
-3.0
 74
     0
 49
0.5
 74
     0
 49
-3.0
 74
     0
 49
0.5
 74
     0
 49
-3.0
 74
     0
  0
LTYPE
  5
46
100
AcDbSymbolTableRecord
100
AcDbLinetypeTableRecord
  2
ACAD_ISO15W100
 70
     0
  3
__ __ . . . __ __ . . . __ __ .
 72
    65
 73
     6
 40
33.5
 49
12.0
 74
     0
 49
-3.0
 74
     0
 49
12.0
 74
     0
 49
-3.0
 74
     0
 49
0.5
 74
     0
 49
-3.0
 74
     0
  0
ENDTAB
  0
TABLE
  2
LAYER
  5
2
100
AcDbSymbolTable
 70
     6
  0
LAYER
  5
E
100
AcDbSymbolTableRecord
100
AcDbLayerTableRecord
  2
0
 70
     0
 62
     7
  6
CONTINUOUS
  0
LAYER
  5
47
100
AcDbSymbolTableRecord
100
AcDbLayerTableRecord
  2
AXES
 70
     0
 62
     1
  6
CONTINUOUS
  0
LAYER
  5
48
100
AcDbSymbolTableRecord
100
AcDbLayerTableRecord
  2
BUMPSTOPFRAME
 70
     0
 62
     7
  6
CONTINUOUS
  0
LAYER
  5
49
100
AcDbSymbolTableRecord
100
AcDbLayerTableRecord
  2
COMMENTS
 70
     0
 62
    94
  6
CONTINUOUS
  0
LAYER
  5
4A
100
AcDbSymbolTableRecord
100
AcDbLayerTableRecord
  2
NUT
 70
     0
 62
     7
  6
CONTINUOUS
  0
LAYER
  5
4B
100
AcDbSymbolTableRecord
100
AcDbLayerTableRecord
  2
RUBBERPAD
 70
     0
 62
     7
  6
CONTINUOUS
  0
ENDTAB
  0
TABLE
  2
STYLE
  5
3
100
AcDbSymbolTable
 70
     5
  0
STYLE
  5
F
100
AcDbSymbolTableRecord
100
AcDbTextStyleTableRecord
  2
STANDARD
 70
     0
 40
0.0
 41
1.0
 50
0.0
 71
     0
 42
77.43169389305414
  3
txt
  4

  0
STYLE
  5
4C
100
AcDbSymbolTableRecord
100
AcDbTextStyleTableRecord
  2
ITALIC
 70
     0
 40
0.0
 41
1.0
 50
0.0
 71
     0
 42
77.43169389305414
  3
ITALIC
  4

  0
STYLE
  5
4D
100
AcDbSymbolTableRecord
100
AcDbTextStyleTableRecord
  2
SIMPLEX
 70
     0
 40
0.0
 41
1.0
 50
0.0
 71
     0
 42
77.43169389305414
  3
SIMPLEX
  4

  0
STYLE
  5
4E
100
AcDbSymbolTableRecord
100
AcDbTextStyleTableRecord
  2
COMPLEX
 70
     0
 40
0.0
 41
1.0
 50
0.0
 71
     0
 42
77.43169389305414
  3
COMPLEX
  4

  0
STYLE
  5
14B
100
AcDbSymbolTableRecord
100
AcDbTextStyleTableRecord
  2
ARIAL
 70
     0
 40
0.0
 41
1.0
 50
0.0
 71
     0
 42
77.43169389305414
  3
ARIAL.TTF
  4

1001
ACAD
1000
Arial
1071
        0
  0
ENDTAB
  0
TABLE
  2
VIEW
  5
6
100
AcDbSymbolTable
 70
     0
  0
ENDTAB
  0
TABLE
  2
UCS
  5
7
100
AcDbSymbolTable
 70
     0
  0
ENDTAB
  0
TABLE
  2
APPID
  5
9
100
AcDbSymbolTable
 70
     1
  0
APPID
  5
10
100
AcDbSymbolTableRecord
100
AcDbRegAppTableRecord
  2
ACAD
 70
     0
  0
ENDTAB
  0
TABLE
  2
DIMSTYLE
  5
A
100
AcDbSymbolTable
 70
     1
  0
DIMSTYLE
105
1D
100
AcDbSymbolTableRecord
100
AcDbDimStyleTableRecord
  2
STANDARD
 70
     0
  3

  4

  5

  6

  7

 40
1.0
 41
0.18
 42
0.0625
 43
0.38
 44
0.18
 45
0.0
 46
0.0
 47
0.0
 48
0.0
140
0.18
141
0.09
142
0.0
143
25.4
144
1.0
145
0.0
146
1.0
147
0.09
 71
     0
 72
     0
 73
     1
 74
     1
 75
     0
 76
     0
 77
     0
 78
     0
170
     0
171
     2
172
     0
173
     0
174
     0
175
     0
176
     0
177
     0
178
     0
270
     2
271
     4
272
     4
273
     2
274
     2
340
F
275
     0
280
     0
281
     0
282
     0
283
     1
284
     0
285
     0
286
     0
287
     3
288
     0
  0
ENDTAB
  0
TABLE
  2
BLOCK_RECORD
  5
1
100
AcDbSymbolTable
 70
     0
  0
BLOCK_RECORD
  5
18
100
AcDbSymbolTableRecord
100
AcDbBlockTableRecord
  2
*MODEL_SPACE
  0
BLOCK_RECORD
  5
15
100
AcDbSymbolTableRecord
100
AcDbBlockTableRecord
  2
*PAPER_SPACE
  0
ENDTAB
  0
ENDSEC
  0
SECTION
  2
BLOCKS
  0
BLOCK
  5
19
100
AcDbEntity
  8
0
100
AcDbBlockBegin
  2
*MODEL_SPACE
 70
     0
 10
0.0
 20
0.0
 30
0.0
  3
*MODEL_SPACE
  1

  0
ENDBLK
  5
1A
100
AcDbEntity
  8
0
100
AcDbBlockEnd
  0
BLOCK
  5
16
100
AcDbEntity
 67
     1
  8
0
100
AcDbBlockBegin
  2
*PAPER_SPACE
 70
     0
 10
0.0
 20
0.0
 30
0.0
  3
*PAPER_SPACE
  1

  0
ENDBLK
  5
17
100
AcDbEntity
 67
     1
  8
0
100
AcDbBlockEnd
  0
ENDSEC
  0
SECTION
  2
ENTITIES
  0
LINE
  5
4F
100
AcDbEntity
  8
AXES
  6
CONTINUOUS
100
AcDbLine
 10
12413.40727778151
 20
8772.279611675392
 30
0.0
 11
12413.40727778151
 21
8461.470842671957
 31
0.0
  0
LINE
  5
50
100
AcDbEntity
  8
AXES
  6
CONTINUOUS
100
AcDbLine
 10
12130.23454924789
 20
8695.477867165406
 30
0.0
 11
12693.85719161765
 21
8695.477867165406
 31
0.0
  0
LINE
  5
51
100
AcDbEntity
  8
AXES
  6
CONTINUOUS
100
AcDbLine
 10
12061.62147206548
 20
8585.477867165401
 30
0.0
 11
12756.00315458015
 21
8585.477867165407
 31
0.0
  0
LINE
  5
52
100
AcDbEntity
  8
AXES
  6
CONTINUOUS
100
AcDbLine
 10
12468.40727778149
 20
8636.231139651277
 30
0.0
 11
12468.40727778147
 21
8545.938575932488
 31
0.0
  0
LINE
  5
53
100
AcDbEntity
  8
AXES
  6
CONTINUOUS
100
AcDbLine
 10
12358.40727778149
 20
8625.784007274074
 30
0.0
 11
12358.40727778153
 21
8541.070123029042
 31
0.0
  0
LWPOLYLINE
  5
54
100
AcDbEntity
  8
NUT
  6
CONTINUOUS
100
AcDbPolyline
 90
        6
 70
     1
 43
0.0
 10
11962.80095953867
 20
8663.317204534857
 10
11942.80095953867
 20
8674.864209918647
 10
11922.80095953867
 20
8663.317204534857
 10
11922.80095953867
 20
8640.223193767271
 10
11942.80095953867
 20
8628.676188383478
 10
11962.80095953867
 20
8640.223193767271
  0
CIRCLE
  5
55
100
AcDbEntity
  8
NUT
  6
CONTINUOUS
100
AcDbCircle
 10
11942.80095953867
 20
8651.770199151064
 30
0.0
 40
19.0
  0
CIRCLE
  5
56
100
AcDbEntity
  8
NUT
  6
CONTINUOUS
100
AcDbCircle
 10
11942.80095953867
 20
8651.770199151064
 30
0.0
 40
12.5
  0
LINE
  5
57
100
AcDbEntity
  8
NUT
  6
CONTINUOUS
100
AcDbLine
 10
11954.93562063818
 20
8648.770199151064
 30
0.0
 11
11961.56262257796
 21
8648.770199151064
 31
0.0
  0
LINE
  5
58
100
AcDbEntity
  8
NUT
  6
CONTINUOUS
100
AcDbLine
 10
11954.93562063818
 20
8654.770199151066
 30
0.0
 11
11961.56262257796
 21
8654.770199151066
 31
0.0
  0
LINE
  5
59
100
AcDbEntity
  8
AXES
  6
CONTINUOUS
100
AcDbLine
 10
11942.80095953866
 20
8614.976129568345
 30
0.0
 11
11942.80095953866
 21
8695.262806609239
 31
0.0
  0
LINE
  5
5A
100
AcDbEntity
  8
AXES
  6
CONTINUOUS
100
AcDbLine
 10
11913.80077465947
 20
8651.770199151064
 30
0.0
 11
12009.12327981744
 21
8651.770199151064
 31
0.0
  0
LWPOLYLINE
  5
5B
100
AcDbEntity
  8
NUT
  6
CONTINUOUS
100
AcDbPolyline
 90
        6
 70
     1
 43
0.0
 10
12391.10017634855
 20
8701.455036979828
 10
12397.07734616301
 20
8679.14793554682
 10
12419.38444759602
 20
8673.170765732367
 10
12435.71437921457
 20
8689.50069735092
 10
12429.73720940011
 20
8711.807798783928
 10
12407.43010796711
 20
8717.784968598385
  0
LINE
  5
5C
100
AcDbEntity
  8
NUT
  6
CONTINUOUS
100
AcDbLine
 10
12407.27426223891
 20
8684.180251472069
 30
0.0
 11
12405.59193844575
 21
8677.901733601188
 31
0.0
  0
LINE
  5
5D
100
AcDbEntity
  8
NUT
  6
CONTINUOUS
100
AcDbLine
 10
12413.06981719665
 20
8682.62733720145
 30
0.0
 11
12411.38749340348
 21
8676.348819330574
 31
0.0
  0
CIRCLE
  5
5E
100
AcDbEntity
  8
NUT
  6
CONTINUOUS
100
AcDbCircle
 10
12413.40727778156
 20
8695.477867165376
 30
0.0
 40
19.0
  0
CIRCLE
  5
5F
100
AcDbEntity
  8
NUT
  6
CONTINUOUS
100
AcDbCircle
 10
12413.40727778156
 20
8695.477867165376
 30
0.0
 40
12.5
  0
LINE
  5
60
100
AcDbEntity
  8
NUT
  6
CONTINUOUS
100
AcDbLine
 10
12420.12479220283
 20
8684.517712056983
 30
0.0
 11
12424.72098628055
 21
8679.921517979265
 31
0.0
  0
LINE
  5
61
100
AcDbEntity
  8
NUT
  6
CONTINUOUS
100
AcDbLine
 10
12424.36743288996
 20
8688.760352744104
 30
0.0
 11
12428.96362696767
 21
8684.164158666389
 31
0.0
  0
LINE
  5
62
100
AcDbEntity
  8
NUT
  6
CONTINUOUS
100
AcDbLine
 10
12426.25780774548
 20
8695.815327750288
 30
0.0
 11
12432.53632561636
 21
8697.497651543455
 31
0.0
  0
LINE
  5
63
100
AcDbEntity
  8
NUT
  6
CONTINUOUS
100
AcDbLine
 10
12424.70489347487
 20
8701.610882708022
 30
0.0
 11
12430.98341134575
 21
8703.293206501191
 31
0.0
  0
LINE
  5
64
100
AcDbEntity
  8
NUT
  6
CONTINUOUS
100
AcDbLine
 10
12419.54029332421
 20
8706.775482858683
 30
0.0
 11
12421.22261711738
 21
8713.054000729561
 31
0.0
  0
LINE
  5
65
100
AcDbEntity
  8
NUT
  6
CONTINUOUS
100
AcDbLine
 10
12413.74473836647
 20
8708.328397129298
 30
0.0
 11
12415.42706215964
 21
8714.606915000175
 31
0.0
  0
LINE
  5
66
100
AcDbEntity
  8
NUT
  6
CONTINUOUS
100
AcDbLine
 10
12406.68976336029
 20
8706.438022273763
 30
0.0
 11
12402.09356928258
 21
8711.03421635148
 31
0.0
  0
LINE
  5
67
100
AcDbEntity
  8
NUT
  6
CONTINUOUS
100
AcDbLine
 10
12402.44712267317
 20
8702.195381586646
 30
0.0
 11
12397.85092859546
 21
8706.791575664359
 31
0.0
  0
LINE
  5
68
100
AcDbEntity
  8
NUT
  6
CONTINUOUS
100
AcDbLine
 10
12400.55674781764
 20
8695.140406580458
 30
0.0
 11
12394.27822994676
 21
8693.458082787294
 31
0.0
  0
LINE
  5
69
100
AcDbEntity
  8
NUT
  6
CONTINUOUS
100
AcDbLine
 10
12402.10966208826
 20
8689.344851622724
 30
0.0
 11
12395.83114421738
 21
8687.662527829557
 31
0.0
  0
LWPOLYLINE
  5
6A
100
AcDbEntity
  8
NUT
  6
CONTINUOUS
100
AcDbPolyline
 90
        6
 70
     1
 43
0.0
 10
12380.71437921455
 20
8579.500697350892
 10
12374.7372094001
 20
8601.8077987839
 10
12352.43010796709
 20
8607.784968598357
 10
12336.10017634854
 20
8591.455036979802
 10
12342.07734616299
 20
8569.147935546792
 10
12364.384447596
 20
8563.170765732339
  0
LINE
  5
6B
100
AcDbEntity
  8
NUT
  6
CONTINUOUS
100
AcDbLine
 10
12364.54029332419
 20
8596.775482858655
 30
0.0
 11
12366.22261711736
 21
8603.054000729533
 31
0.0
  0
LINE
  5
6C
100
AcDbEntity
  8
NUT
  6
CONTINUOUS
100
AcDbLine
 10
12358.74473836646
 20
8598.32839712927
 30
0.0
 11
12360.42706215963
 21
8604.606915000145
 31
0.0
  0
CIRCLE
  5
6D
100
AcDbEntity
  8
NUT
  6
CONTINUOUS
100
AcDbCircle
 10
12358.40727778155
 20
8585.477867165346
 30
0.0
 40
19.0
  0
CIRCLE
  5
6E
100
AcDbEntity
  8
NUT
  6
CONTINUOUS
100
AcDbCircle
 10
12358.40727778155
 20
8585.477867165346
 30
0.0
 40
12.5
  0
LINE
  5
6F
100
AcDbEntity
  8
NUT
  6
CONTINUOUS
100
AcDbLine
 10
12351.68976336027
 20
8596.438022273735
 30
0.0
 11
12347.09356928256
 21
8601.034216351456
 31
0.0
  0
LINE
  5
70
100
AcDbEntity
  8
NUT
  6
CONTINUOUS
100
AcDbLine
 10
12347.44712267315
 20
8592.195381586618
 30
0.0
 11
12342.85092859544
 21
8596.79157566433
 31
0.0
  0
LINE
  5
71
100
AcDbEntity
  8
NUT
  6
CONTINUOUS
100
AcDbLine
 10
12345.55674781762
 20
8585.140406580434
 30
0.0
 11
12339.27822994674
 21
8583.458082787265
 31
0.0
  0
LINE
  5
72
100
AcDbEntity
  8
NUT
  6
CONTINUOUS
100
AcDbLine
 10
12347.10966208824
 20
8579.344851622696
 30
0.0
 11
12340.83114421736
 21
8577.662527829529
 31
0.0
  0
LINE
  5
73
100
AcDbEntity
  8
NUT
  6
CONTINUOUS
100
AcDbLine
 10
12352.2742622389
 20
8574.180251472041
 30
0.0
 11
12350.59193844573
 21
8567.901733601159
 31
0.0
  0
LINE
  5
74
100
AcDbEntity
  8
NUT
  6
CONTINUOUS
100
AcDbLine
 10
12358.06981719663
 20
8572.627337201423
 30
0.0
 11
12356.38749340347
 21
8566.348819330546
 31
0.0
  0
LINE
  5
75
100
AcDbEntity
  8
NUT
  6
CONTINUOUS
100
AcDbLine
 10
12365.12479220282
 20
8574.517712056957
 30
0.0
 11
12369.72098628053
 21
8569.921517979244
 31
0.0
  0
LINE
  5
76
100
AcDbEntity
  8
NUT
  6
CONTINUOUS
100
AcDbLine
 10
12369.36743288994
 20
8578.760352744074
 30
0.0
 11
12373.96362696765
 21
8574.164158666363
 31
0.0
  0
LINE
  5
77
100
AcDbEntity
  8
NUT
  6
CONTINUOUS
100
AcDbLine
 10
12371.25780774547
 20
8585.81532775026
 30
0.0
 11
12377.53632561634
 21
8587.497651543428
 31
0.0
  0
LINE
  5
78
100
AcDbEntity
  8
NUT
  6
CONTINUOUS
100
AcDbLine
 10
12369.70489347485
 20
8591.610882708
 30
0.0
 11
12375.98341134573
 21
8593.293206501163
 31
0.0
  0
LWPOLYLINE
  5
79
100
AcDbEntity
  8
NUT
  6
CONTINUOUS
100
AcDbPolyline
 90
        6
 70
     1
 43
0.0
 10
12474.384447596
 20
8607.784968598355
 10
12452.07734616299
 20
8601.807798783902
 10
12446.10017634853
 20
8579.500697350896
 10
12462.43010796709
 20
8563.170765732341
 10
12484.7372094001
 20
8569.147935546792
 10
12490.71437921455
 20
8591.455036979802
  0
LINE
  5
7A
100
AcDbEntity
  8
NUT
  6
CONTINUOUS
100
AcDbLine
 10
12457.10966208824
 20
8591.610882707996
 30
0.0
 11
12450.83114421736
 21
8593.293206501163
 31
0.0
  0
LINE
  5
7B
100
AcDbEntity
  8
NUT
  6
CONTINUOUS
100
AcDbLine
 10
12455.55674781762
 20
8585.815327750262
 30
0.0
 11
12449.27822994674
 21
8587.497651543428
 31
0.0
  0
CIRCLE
  5
7C
100
AcDbEntity
  8
NUT
  6
CONTINUOUS
100
AcDbCircle
 10
12468.40727778154
 20
8585.477867165348
 30
0.0
 40
19.0
  0
CIRCLE
  5
7D
100
AcDbEntity
  8
NUT
  6
CONTINUOUS
100
AcDbCircle
 10
12468.40727778154
 20
8585.477867165348
 30
0.0
 40
12.5
  0
LINE
  5
7E
100
AcDbEntity
  8
NUT
  6
CONTINUOUS
100
AcDbLine
 10
12457.44712267315
 20
8578.760352744074
 30
0.0
 11
12452.85092859544
 21
8574.164158666359
 31
0.0
  0
LINE
  5
7F
100
AcDbEntity
  8
NUT
  6
CONTINUOUS
100
AcDbLine
 10
12461.68976336027
 20
8574.51771205695
 30
0.0
 11
12457.09356928256
 21
8569.921517979238
 31
0.0
  0
LINE
  5
80
100
AcDbEntity
  8
NUT
  6
CONTINUOUS
100
AcDbLine
 10
12468.74473836646
 20
8572.627337201426
 30
0.0
 11
12470.42706215962
 21
8566.348819330547
 31
0.0
  0
LINE
  5
81
100
AcDbEntity
  8
NUT
  6
CONTINUOUS
100
AcDbLine
 10
12474.54029332419
 20
8574.180251472041
 30
0.0
 11
12476.22261711736
 21
8567.901733601164
 31
0.0
  0
LINE
  5
82
100
AcDbEntity
  8
NUT
  6
CONTINUOUS
100
AcDbLine
 10
12479.70489347485
 20
8579.344851622701
 30
0.0
 11
12485.98341134573
 21
8577.662527829533
 31
0.0
  0
LINE
  5
83
100
AcDbEntity
  8
NUT
  6
CONTINUOUS
100
AcDbLine
 10
12481.25780774547
 20
8585.140406580435
 30
0.0
 11
12487.53632561634
 21
8583.458082787268
 31
0.0
  0
LINE
  5
84
100
AcDbEntity
  8
NUT
  6
CONTINUOUS
100
AcDbLine
 10
12479.36743288993
 20
8592.19538158662
 30
0.0
 11
12483.96362696765
 21
8596.791575664331
 31
0.0
  0
LINE
  5
85
100
AcDbEntity
  8
NUT
  6
CONTINUOUS
100
AcDbLine
 10
12475.12479220282
 20
8596.438022273742
 30
0.0
 11
12479.72098628053
 21
8601.034216351456
 31
0.0
  0
LINE
  5
86
100
AcDbEntity
  8
NUT
  6
CONTINUOUS
100
AcDbLine
 10
12468.06981719663
 20
8598.328397129268
 30
0.0
 11
12466.38749340346
 21
8604.60691500015
 31
0.0
  0
LINE
  5
87
100
AcDbEntity
  8
NUT
  6
CONTINUOUS
100
AcDbLine
 10
12462.27426223889
 20
8596.775482858653
 30
0.0
 11
12460.59193844573
 21
8603.054000729532
 31
0.0
  0
CIRCLE
  5
88
100
AcDbEntity
  8
BUMPSTOPFRAME
  6
CONTINUOUS
100
AcDbCircle
 10
12468.40727778154
 20
8585.477867165348
 30
0.0
 40
9.999999999999998
  0
CIRCLE
  5
89
100
AcDbEntity
  8
BUMPSTOPFRAME
  6
CONTINUOUS
100
AcDbCircle
 10
12413.40727778156
 20
8695.477867165376
 30
0.0
 40
9.999999999999998
  0
CIRCLE
  5
8A
100
AcDbEntity
  8
BUMPSTOPFRAME
  6
CONTINUOUS
100
AcDbCircle
 10
12358.40727778155
 20
8585.477867165346
 30
0.0
 40
9.999999999999998
  0
LINE
  5
8B
100
AcDbEntity
  8
BUMPSTOPFRAME
  6
CONTINUOUS
100
AcDbLine
 10
12386.21804417046
 20
8708.156415017597
 30
0.0
 11
12340.09152437102
 21
8609.237774088665
 31
0.0
  0
LINE
  5
8C
100
AcDbEntity
  8
BUMPSTOPFRAME
  6
CONTINUOUS
100
AcDbLine
 10
12440.59651139252
 20
8708.156415017597
 30
0.0
 11
12486.72303119196
 21
8609.237774088665
 31
0.0
  0
LINE
  5
8D
100
AcDbEntity
  8
BUMPSTOPFRAME
  6
CONTINUOUS
100
AcDbLine
 10
12389.30648278694
 20
8677.61305032816
 30
0.0
 11
12371.81052789384
 21
8612.317257740153
 31
0.0
  0
LINE
  5
8E
100
AcDbEntity
  8
BUMPSTOPFRAME
  6
CONTINUOUS
100
AcDbLine
 10
12381.6700318665
 20
8695.477867165427
 30
0.0
 11
12360.21941797836
 21
8615.423086281362
 31
0.0
  0
LINE
  5
8F
100
AcDbEntity
  8
BUMPSTOPFRAME
  6
CONTINUOUS
100
AcDbLine
 10
12437.50807277604
 20
8677.61305032816
 30
0.0
 11
12455.00402766915
 21
8612.317257740153
 31
0.0
  0
LINE
  5
90
100
AcDbEntity
  8
BUMPSTOPFRAME
  6
CONTINUOUS
100
AcDbLine
 10
12445.14452369661
 20
8695.477867165427
 30
0.0
 11
12466.59513758462
 21
8615.423086281362
 31
0.0
  0
LINE
  5
91
100
AcDbEntity
  8
BUMPSTOPFRAME
  6
CONTINUOUS
100
AcDbLine
 10
12616.23273583088
 20
8725.47786716535
 30
0.0
 11
12616.23273583079
 21
8551.477867165443
 31
0.0
  0
LINE
  5
92
100
AcDbEntity
  8
BUMPSTOPFRAME
  6
CONTINUOUS
100
AcDbLine
 10
12616.23273583088
 20
8725.477867165368
 30
0.0
 11
12631.23273583084
 21
8725.47786716535
 31
0.0
  0
LINE
  5
93
100
AcDbEntity
  8
BUMPSTOPFRAME
  6
CONTINUOUS
100
AcDbLine
 10
12631.23273583088
 20
8725.47786716535
 30
0.0
 11
12631.23273583083
 21
8609.237774088658
 31
0.0
  0
LINE
  5
94
100
AcDbEntity
  8
BUMPSTOPFRAME
  6
CONTINUOUS
100
AcDbLine
 10
12696.23273583083
 20
8615.477867165294
 30
0.0
 11
12696.23273583079
 21
8565.693257476121
 31
0.0
  0
LINE
  5
95
100
AcDbEntity
  8
BUMPSTOPFRAME
  6
CONTINUOUS
100
AcDbLine
 10
12631.23273583083
 20
8615.477867165294
 30
0.0
 11
12696.23273583083
 21
8615.477867165347
 31
0.0
  0
LINE
  5
96
100
AcDbEntity
  8
BUMPSTOPFRAME
  6
CONTINUOUS
100
AcDbLine
 10
12631.23273583083
 20
8695.477867165427
 30
0.0
 11
12681.23273583083
 21
8615.477867165294
 31
0.0
  0
LINE
  5
97
100
AcDbEntity
  8
BUMPSTOPFRAME
  6
CONTINUOUS
100
AcDbLine
 10
12391.08693625491
 20
8551.477867165409
 30
0.0
 11
12533.40727778214
 21
8551.477867165408
 31
0.0
  0
LINE
  5
98
100
AcDbEntity
  8
BUMPSTOPFRAME
  6
CONTINUOUS
100
AcDbLine
 10
12495.38875290804
 20
8563.477867165401
 30
0.0
 11
12533.40727778219
 21
8563.47786716544
 31
0.0
  0
LINE
  5
99
100
AcDbEntity
  8
BUMPSTOPFRAME
  6
CONTINUOUS
100
AcDbLine
 10
12385.38875290805
 20
8563.477867165408
 30
0.0
 11
12441.42580265504
 21
8563.477867165408
 31
0.0
  0
LINE
  5
9A
100
AcDbEntity
  8
BUMPSTOPFRAME
  6
CONTINUOUS
100
AcDbLine
 10
12533.40727778165
 20
8563.47786716531
 30
0.0
 11
12533.4072777816
 21
8551.477867165411
 31
0.0
  0
ARC
  5
9B
100
AcDbEntity
  8
BUMPSTOPFRAME
  6
CONTINUOUS
100
AcDbCircle
 10
12441.42580265504
 20
8566.477867165406
 30
0.0
 40
3.0
100
AcDbArc
 50
270.0
 51
35.15270296665471
  0
ARC
  5
9C
100
AcDbEntity
  8
BUMPSTOPFRAME
  6
CONTINUOUS
100
AcDbCircle
 10
12495.38875290804
 20
8566.477867165401
 30
0.0
 40
3.0
100
AcDbArc
 50
144.8472970333363
 51
270.0
  0
ARC
  5
9D
100
AcDbEntity
  8
BUMPSTOPFRAME
  6
CONTINUOUS
100
AcDbCircle
 10
12385.38875290805
 20
8566.477867165406
 30
0.0
 40
3.0
100
AcDbArc
 50
144.8472970333488
 51
270.0
  0
CIRCLE
  5
9E
100
AcDbEntity
  8
BUMPSTOPFRAME
  6
CONTINUOUS
100
AcDbCircle
 10
12468.40727778154
 20
8585.477867165348
 30
0.0
 40
30.0
  0
LINE
  5
9F
100
AcDbEntity
  8
BUMPSTOPFRAME
  6
CONTINUOUS
100
AcDbLine
 10
12386.09378858114
 20
8546.739546946623
 30
0.0
 11
12383.40727778146
 21
8495.477867165403
 31
0.0
  0
LINE
  5
A0
100
AcDbEntity
  8
BUMPSTOPFRAME
  6
CONTINUOUS
100
AcDbLine
 10
12356.1061837154
 20
8495.477867165687
 30
0.0
 11
12383.4072777814
 21
8495.477867165403
 31
0.0
  0
ARC
  5
A1
100
AcDbEntity
  8
BUMPSTOPFRAME
  6
CONTINUOUS
100
AcDbCircle
 10
12391.08693625491
 20
8546.477867165407
 30
0.0
 40
4.999999999999999
100
AcDbArc
 50
90.00000000000005
 51
176.9999999999899
  0
LINE
  5
A2
100
AcDbEntity
  8
BUMPSTOPFRAME
  6
CONTINUOUS
100
AcDbLine
 10
12668.23273583086
 20
8495.477867165416
 30
0.0
 11
12706.23273583098
 21
8495.477867164995
 31
0.0
  0
LINE
  5
A3
100
AcDbEntity
  8
BUMPSTOPFRAME
  6
CONTINUOUS
100
AcDbLine
 10
12329.87558229269
 20
8576.207357334096
 30
0.0
 11
12356.1061837154
 21
8495.477867165694
 31
0.0
  0
LINE
  5
A4
100
AcDbEntity
  8
BUMPSTOPFRAME
  6
CONTINUOUS
100
AcDbLine
 10
12334.40727778147
 20
8564.693257474626
 30
0.0
 11
12334.40727778141
 21
8562.260232733104
 31
0.0
  0
ARC
  5
A5
100
AcDbEntity
  8
BUMPSTOPFRAME
  6
CONTINUOUS
100
AcDbCircle
 10
12335.40727778147
 20
8564.693257474599
 30
0.0
 40
0.9999999999999998
100
AcDbArc
 50
42.10344887054515
 51
179.9999999985109
  0
ARC
  5
A6
100
AcDbEntity
  8
BUMPSTOPFRAME
  6
CONTINUOUS
100
AcDbCircle
 10
12358.40727778155
 20
8585.477867165346
 30
0.0
 40
30.0
100
AcDbArc
 50
222.1034488705449
 51
198.0000000001002
  0
LINE
  5
A7
100
AcDbEntity
  8
BUMPSTOPFRAME
  6
CONTINUOUS
100
AcDbLine
 10
12696.23273583079
 20
8565.693257474658
 30
0.0
 11
12706.23273583102
 21
8565.693257474618
 31
0.0
  0
LINE
  5
A8
100
AcDbEntity
  8
BUMPSTOPFRAME
  6
CONTINUOUS
100
AcDbLine
 10
12706.23273583088
 20
8565.693257474618
 30
0.0
 11
12706.23273583098
 21
8495.477867165071
 31
0.0
  0
LINE
  5
A9
100
AcDbEntity
  8
BUMPSTOPFRAME
  6
CONTINUOUS
100
AcDbLine
 10
12616.2327358308
 20
8609.237774088658
 30
0.0
 11
12631.23273583083
 21
8609.237774088665
 31
0.0
  0
LINE
  5
AA
100
AcDbEntity
  8
BUMPSTOPFRAME
  6
CONTINUOUS
100
AcDbLine
 10
12668.23273583086
 20
8495.477867165416
 30
0.0
 11
12616.23273583079
 21
8551.477867165372
 31
0.0
  0
LINE
  5
AB
100
AcDbEntity
  8
RUBBERPAD
  6
CONTINUOUS
100
AcDbLine
 10
12394.40727778088
 20
8540.477867165442
 30
0.0
 11
12532.40727778232
 21
8540.477867165428
 31
0.0
  0
LINE
  5
AC
100
AcDbEntity
  8
RUBBERPAD
  6
CONTINUOUS
100
AcDbLine
 10
12394.40727778088
 20
8550.477867165385
 30
0.0
 11
12532.40727778232
 21
8550.47786716541
 31
0.0
  0
LINE
  5
AD
100
AcDbEntity
  8
RUBBERPAD
  6
CONTINUOUS
100
AcDbLine
 10
12394.4072777788
 20
8550.477867165422
 30
0.0
 11
12394.40727778203
 21
8540.477867165476
 31
0.0
  0
LINE
  5
AE
100
AcDbEntity
  8
RUBBERPAD
  6
CONTINUOUS
100
AcDbLine
 10
12398.40727778033
 20
8539.477867165429
 30
0.0
 11
12528.40727778058
 21
8539.477867165397
 31
0.0
  0
LINE
  5
AF
100
AcDbEntity
  8
RUBBERPAD
  6
CONTINUOUS
100
AcDbLine
 10
12390.40727778034
 20
8531.477867165447
 30
0.0
 11
12390.40727778034
 21
8529.477867165317
 31
0.0
  0
LINE
  5
B0
100
AcDbEntity
  8
RUBBERPAD
  6
CONTINUOUS
100
AcDbLine
 10
12393.40727777818
 20
8529.477867162428
 30
0.0
 11
12390.40727778055
 21
8529.477867165317
 31
0.0
  0
ARC
  5
B1
100
AcDbEntity
  8
RUBBERPAD
  6
CONTINUOUS
100
AcDbCircle
 10
12398.40727778033
 20
8531.477867165431
 30
0.0
 40
7.999999999999999
100
AcDbArc
 50
89.99999999999994
 51
179.9999999998965
  0
LINE
  5
B2
100
AcDbEntity
  8
RUBBERPAD
  6
CONTINUOUS
100
AcDbLine
 10
12398.40727777919
 20
8536.477867165427
 30
0.0
 11
12528.40727778172
 21
8536.477867165396
 31
0.0
  0
LINE
  5
B3
100
AcDbEntity
  8
RUBBERPAD
  6
CONTINUOUS
100
AcDbLine
 10
12393.40727778034
 20
8531.477867165447
 30
0.0
 11
12393.40727778034
 21
8529.477867165317
 31
0.0
  0
ARC
  5
B4
100
AcDbEntity
  8
RUBBERPAD
  6
CONTINUOUS
100
AcDbCircle
 10
12398.40727777919
 20
8531.477867165307
 30
0.0
 40
4.999999999999999
100
AcDbArc
 50
89.99999999999992
 51
179.9999999999338
  0
LINE
  5
B5
100
AcDbEntity
  8
RUBBERPAD
  6
CONTINUOUS
100
AcDbLine
 10
12532.40727778023
 20
8550.477867165445
 30
0.0
 11
12532.4072777815
 21
8540.477867165462
 31
0.0
  0
LINE
  5
B6
100
AcDbEntity
  8
RUBBERPAD
  6
CONTINUOUS
100
AcDbLine
 10
12536.40727778056
 20
8531.477867165447
 30
0.0
 11
12536.40727778057
 21
8529.477867165317
 31
0.0
  0
LINE
  5
B7
100
AcDbEntity
  8
RUBBERPAD
  6
CONTINUOUS
100
AcDbLine
 10
12533.40727778273
 20
8529.477867162428
 30
0.0
 11
12536.40727778035
 21
8529.477867165317
 31
0.0
  0
ARC
  5
B8
100
AcDbEntity
  8
RUBBERPAD
  6
CONTINUOUS
100
AcDbCircle
 10
12528.40727778057
 20
8531.477867165431
 30
0.0
 40
7.999999999999999
100
AcDbArc
 50
0.0000000001034062
 51
90.00000000000005
  0
LINE
  5
B9
100
AcDbEntity
  8
RUBBERPAD
  6
CONTINUOUS
100
AcDbLine
 10
12533.40727778056
 20
8531.477867165447
 30
0.0
 11
12533.40727778057
 21
8529.477867165317
 31
0.0
  0
ARC
  5
BA
100
AcDbEntity
  8
RUBBERPAD
  6
CONTINUOUS
100
AcDbCircle
 10
12528.40727778171
 20
8531.477867165307
 30
0.0
 40
4.999999999999999
100
AcDbArc
 50
0.000000000066181
 51
90.00000000000005
  0
LINE
  5
BB
100
AcDbEntity
  8
RUBBERPAD
  6
CONTINUOUS
100
AcDbLine
 10
12417.99413414635
 20
8469.477867165389
 30
0.0
 11
12508.82042141489
 21
8469.477867165446
 31
0.0
  0
LINE
  5
BC
100
AcDbEntity
  8
RUBBERPAD
  6
CONTINUOUS
100
AcDbLine
 10
12390.40727778055
 20
8529.477867165317
 30
0.0
 11
12403.50524675169
 21
8480.595581488897
 31
0.0
  0
LINE
  5
BD
100
AcDbEntity
  8
RUBBERPAD
  6
CONTINUOUS
100
AcDbLine
 10
12520.71951256199
 20
8485.47786716537
 30
0.0
 11
12406.09504299887
 21
8485.477867165283
 31
0.0
  0
LINE
  5
BE
100
AcDbEntity
  8
RUBBERPAD
  6
CONTINUOUS
100
AcDbLine
 10
12536.40727778035
 20
8529.477867165317
 30
0.0
 11
12523.30930880923
 21
8480.595581488964
 31
0.0
  0
LINE
  5
BF
100
AcDbEntity
  8
RUBBERPAD
  6
CONTINUOUS
100
AcDbLine
 10
12520.71951256199
 20
8526.477867165366
 30
0.0
 11
12406.09504299887
 21
8526.477867165281
 31
0.0
  0
ARC
  5
C0
100
AcDbEntity
  8
RUBBERPAD
  6
CONTINUOUS
100
AcDbCircle
 10
12417.99413414634
 20
8484.477867165507
 30
0.0
 40
15.0
100
AcDbArc
 50
194.9999999999595
 51
270.0
  0
ARC
  5
C1
100
AcDbEntity
  8
RUBBERPAD
  6
CONTINUOUS
100
AcDbCircle
 10
12508.82042141488
 20
8484.477867165493
 30
0.0
 40
15.0
100
AcDbArc
 50
270.0000000000001
 51
345.0000000000439
  0
LINE
  5
C2
100
AcDbEntity
  8
BUMPSTOPFRAME
  6
CONTINUOUS
100
AcDbLine
 10
12210.58181973211
 20
8725.477867165329
 30
0.0
 11
12210.58181973222
 21
8551.477867165418
 31
0.0
  0
LINE
  5
C3
100
AcDbEntity
  8
BUMPSTOPFRAME
  6
CONTINUOUS
100
AcDbLine
 10
12210.58181973211
 20
8725.477867165343
 30
0.0
 11
12195.58181973215
 21
8725.477867165325
 31
0.0
  0
LINE
  5
C4
100
AcDbEntity
  8
BUMPSTOPFRAME
  6
CONTINUOUS
100
AcDbLine
 10
12195.58181973211
 20
8725.477867165325
 30
0.0
 11
12195.58181973218
 21
8609.237774088633
 31
0.0
  0
LINE
  5
C5
100
AcDbEntity
  8
BUMPSTOPFRAME
  6
CONTINUOUS
100
AcDbLine
 10
12130.58181973217
 20
8615.477867165262
 30
0.0
 11
12130.58181973222
 21
8565.693257476089
 31
0.0
  0
LINE
  5
C6
100
AcDbEntity
  8
BUMPSTOPFRAME
  6
CONTINUOUS
100
AcDbLine
 10
12195.58181973217
 20
8615.477867165269
 30
0.0
 11
12130.58181973218
 21
8615.477867165315
 31
0.0
  0
LINE
  5
C7
100
AcDbEntity
  8
BUMPSTOPFRAME
  6
CONTINUOUS
100
AcDbLine
 10
12195.58181973216
 20
8695.477867165404
 30
0.0
 11
12145.58181973217
 21
8615.477867165264
 31
0.0
  0
LINE
  5
C8
100
AcDbEntity
  8
BUMPSTOPFRAME
  6
CONTINUOUS
100
AcDbLine
 10
12126.57693707649
 20
8495.47786716465
 30
0.0
 11
12120.58181973203
 21
8495.477867164961
 31
0.0
  0
LINE
  5
C9
100
AcDbEntity
  8
BUMPSTOPFRAME
  6
CONTINUOUS
100
AcDbLine
 10
12130.58181973222
 20
8565.693257474626
 30
0.0
 11
12120.58181973199
 21
8565.693257474586
 31
0.0
  0
LINE
  5
CA
100
AcDbEntity
  8
BUMPSTOPFRAME
  6
CONTINUOUS
100
AcDbLine
 10
12120.58181973213
 20
8565.693257474586
 30
0.0
 11
12120.58181973203
 21
8495.477867165037
 31
0.0
  0
LINE
  5
CB
100
AcDbEntity
  8
BUMPSTOPFRAME
  6
CONTINUOUS
100
AcDbLine
 10
12210.58181973221
 20
8609.237774088635
 30
0.0
 11
12195.58181973218
 21
8609.23777408864
 31
0.0
  0
LINE
  5
CC
100
AcDbEntity
  8
BUMPSTOPFRAME
  6
CONTINUOUS
100
AcDbLine
 10
12208.58181973348
 20
8549.324021013093
 30
0.0
 11
12210.58181973222
 21
8551.477867165351
 31
0.0
  0
LINE
  5
CD
100
AcDbEntity
  8
RUBBERPAD
  6
CONTINUOUS
100
AcDbLine
 10
12205.58181973327
 20
8539.477867165397
 30
0.0
 11
12125.58181973194
 21
8539.477867165336
 31
0.0
  0
LINE
  5
CE
100
AcDbEntity
  8
RUBBERPAD
  6
CONTINUOUS
100
AcDbLine
 10
12210.78137939928
 20
8530.609626277138
 30
0.0
 11
12201.45928210806
 21
8477.741385388744
 31
0.0
  0
LINE
  5
CF
100
AcDbEntity
  8
AXES
  6
CONTINUOUS
100
AcDbLine
 10
12165.58181973222
 20
8583.628643921681
 30
0.0
 11
12165.58181973227
 21
8448.117610761599
 31
0.0
  0
LINE
  5
D0
100
AcDbEntity
  8
RUBBERPAD
  6
CONTINUOUS
100
AcDbLine
 10
12191.61120457785
 20
8469.477867165389
 30
0.0
 11
12139.5524348866
 21
8469.477867165389
 31
0.0
  0
ARC
  5
D1
100
AcDbEntity
  8
RUBBERPAD
  6
CONTINUOUS
100
AcDbCircle
 10
12191.61120457785
 20
8479.47786716543
 30
0.0
 40
9.999999999999998
100
AcDbArc
 50
270.0
 51
349.9999999999982
  0
LINE
  5
D2
100
AcDbEntity
  8
RUBBERPAD
  6
CONTINUOUS
100
AcDbLine
 10
12120.38226006517
 20
8530.609626277138
 30
0.0
 11
12129.70435735639
 21
8477.741385388744
 31
0.0
  0
ARC
  5
D3
100
AcDbEntity
  8
RUBBERPAD
  6
CONTINUOUS
100
AcDbCircle
 10
12139.5524348866
 20
8479.47786716543
 30
0.0
 40
9.999999999999998
100
AcDbArc
 50
190.0000000000017
 51
269.9999999999999
  0
LINE
  5
D4
100
AcDbEntity
  8
RUBBERPAD
  6
CONTINUOUS
100
AcDbLine
 10
12205.58181973327
 20
8529.477867162443
 30
0.0
 11
12125.58181973194
 21
8529.477867162382
 31
0.0
  0
LINE
  5
D5
100
AcDbEntity
  8
RUBBERPAD
  6
CONTINUOUS
100
AcDbLine
 10
12205.58181973227
 20
8529.477867162428
 30
0.0
 11
12205.58181973227
 21
8539.477867165397
 31
0.0
  0
LINE
  5
D6
100
AcDbEntity
  8
RUBBERPAD
  6
CONTINUOUS
100
AcDbLine
 10
12125.58181973218
 20
8529.477867162428
 30
0.0
 11
12125.58181973218
 21
8539.477867165397
 31
0.0
  0
LINE
  5
D7
100
AcDbEntity
  8
RUBBERPAD
  6
CONTINUOUS
100
AcDbLine
 10
12205.85734063425
 20
8536.477867165427
 30
0.0
 11
12205.58181973327
 21
8536.47786716538
 31
0.0
  0
ARC
  5
D8
100
AcDbEntity
  8
RUBBERPAD
  6
CONTINUOUS
100
AcDbCircle
 10
12205.85734063425
 20
8531.477867165467
 30
0.0
 40
4.999999999999999
100
AcDbArc
 50
349.9999999999988
 51
90.00000000000007
  0
LINE
  5
D9
100
AcDbEntity
  8
RUBBERPAD
  6
CONTINUOUS
100
AcDbLine
 10
12125.3062988302
 20
8536.477867165427
 30
0.0
 11
12125.58181973118
 21
8536.47786716538
 31
0.0
  0
ARC
  5
DA
100
AcDbEntity
  8
RUBBERPAD
  6
CONTINUOUS
100
AcDbCircle
 10
12125.3062988302
 20
8531.477867165467
 30
0.0
 40
4.999999999999999
100
AcDbArc
 50
89.99999999999994
 51
190.0000000000012
  0
LINE
  5
DB
100
AcDbEntity
  8
RUBBERPAD
  6
CONTINUOUS
100
AcDbLine
 10
12122.58181973241
 20
8550.477867165453
 30
0.0
 11
12208.58181973348
 21
8550.477867165481
 31
0.0
  0
LINE
  5
DC
100
AcDbEntity
  8
RUBBERPAD
  6
CONTINUOUS
100
AcDbLine
 10
12122.58181973241
 20
8540.477867165281
 30
0.0
 11
12208.58181973348
 21
8540.477867165369
 31
0.0
  0
LINE
  5
DD
100
AcDbEntity
  8
RUBBERPAD
  6
CONTINUOUS
100
AcDbLine
 10
12208.58181973227
 20
8550.477867165382
 30
0.0
 11
12208.58181973227
 21
8540.477867165357
 31
0.0
  0
LINE
  5
DE
100
AcDbEntity
  8
RUBBERPAD
  6
CONTINUOUS
100
AcDbLine
 10
12122.58181973227
 20
8550.477867165382
 30
0.0
 11
12122.58181973227
 21
8540.477867165366
 31
0.0
  0
LINE
  5
DF
100
AcDbEntity
  8
RUBBERPAD
  6
CONTINUOUS
100
AcDbLine
 10
12195.35941951751
 20
8485.477867165339
 30
0.0
 11
12135.80421994703
 21
8485.477867165293
 31
0.0
  0
LWPOLYLINE
  5
E0
100
AcDbEntity
  8
RUBBERPAD
  6
CONTINUOUS
100
AcDbPolyline
 90
        6
 70
     1
 43
0.0
 10
11963.95638779632
 20
8580.703374141734
 10
11953.95638779632
 20
8586.47687683363
 10
11943.95638779631
 20
8580.703374141734
 10
11943.95638779631
 20
8569.156368757941
 10
11953.95638779632
 20
8563.382866066044
 10
11963.95638779632
 20
8569.156368757941
  0
LINE
  5
E1
100
AcDbEntity
  8
RUBBERPAD
  6
CONTINUOUS
100
AcDbLine
 10
12155.58181973227
 20
8563.477867165444
 30
0.0
 11
12175.58181973227
 21
8563.477867165662
 31
0.0
  0
LINE
  5
E2
100
AcDbEntity
  8
RUBBERPAD
  6
CONTINUOUS
100
AcDbLine
 10
12154.03481434693
 20
8573.477867165808
 30
0.0
 11
12177.12882511631
 21
8573.477867165165
 31
0.0
  0
LINE
  5
E3
100
AcDbEntity
  8
AXES
  6
CONTINUOUS
100
AcDbLine
 10
12463.4072777816
 20
8558.069720504914
 30
0.0
 11
12463.4072777816
 21
8457.088736571503
 31
0.0
  0
LINE
  5
E4
100
AcDbEntity
  8
RUBBERPAD
  6
CONTINUOUS
100
AcDbLine
 10
12403.40727778171
 20
8563.477867165444
 30
0.0
 11
12423.4072777817
 21
8563.477867165662
 31
0.0
  0
LINE
  5
E5
100
AcDbEntity
  8
RUBBERPAD
  6
CONTINUOUS
100
AcDbLine
 10
12403.40727778171
 20
8573.477867165967
 30
0.0
 11
12423.4072777817
 21
8573.477867165903
 31
0.0
  0
LINE
  5
E6
100
AcDbEntity
  8
RUBBERPAD
  6
CONTINUOUS
100
AcDbLine
 10
12403.4072777817
 20
8563.477867165836
 30
0.0
 11
12403.40727778141
 21
8573.477867165903
 31
0.0
  0
LINE
  5
E7
100
AcDbEntity
  8
RUBBERPAD
  6
CONTINUOUS
100
AcDbLine
 10
12413.4072777807
 20
8563.477867165948
 30
0.0
 11
12413.40727778141
 21
8573.477867165903
 31
0.0
  0
LINE
  5
E8
100
AcDbEntity
  8
RUBBERPAD
  6
CONTINUOUS
100
AcDbLine
 10
12423.4072777817
 20
8563.477867166056
 30
0.0
 11
12423.40727778141
 21
8573.477867165903
 31
0.0
  0
LINE
  5
E9
100
AcDbEntity
  8
RUBBERPAD
  6
CONTINUOUS
100
AcDbLine
 10
12503.40727778171
 20
8563.477867165444
 30
0.0
 11
12523.4072777817
 21
8563.477867165662
 31
0.0
  0
LINE
  5
EA
100
AcDbEntity
  8
RUBBERPAD
  6
CONTINUOUS
100
AcDbLine
 10
12503.40727778171
 20
8573.477867165967
 30
0.0
 11
12523.4072777817
 21
8573.477867165903
 31
0.0
  0
LINE
  5
EB
100
AcDbEntity
  8
RUBBERPAD
  6
CONTINUOUS
100
AcDbLine
 10
12503.4072777817
 20
8563.477867165836
 30
0.0
 11
12503.40727778141
 21
8573.477867165903
 31
0.0
  0
LINE
  5
EC
100
AcDbEntity
  8
RUBBERPAD
  6
CONTINUOUS
100
AcDbLine
 10
12513.4072777807
 20
8563.477867165948
 30
0.0
 11
12513.40727778141
 21
8573.477867165903
 31
0.0
  0
LINE
  5
ED
100
AcDbEntity
  8
RUBBERPAD
  6
CONTINUOUS
100
AcDbLine
 10
12523.4072777817
 20
8563.477867166056
 30
0.0
 11
12523.40727778141
 21
8573.477867165903
 31
0.0
  0
LINE
  5
EE
100
AcDbEntity
  8
NUT
  6
CONTINUOUS
100
AcDbLine
 10
11979.98785748721
 20
8628.676188383362
 30
0.0
 11
11979.98785748729
 21
8674.864209918725
 31
0.0
  0
LINE
  5
EF
100
AcDbEntity
  8
NUT
  6
CONTINUOUS
100
AcDbLine
 10
12004.98785748761
 20
8628.676188383362
 30
0.0
 11
12004.98785748725
 21
8674.864209918725
 31
0.0
  0
LINE
  5
F0
100
AcDbEntity
  8
NUT
  6
CONTINUOUS
100
AcDbLine
 10
11979.9878574871
 20
8674.864209918725
 30
0.0
 11
12004.98785748725
 21
8674.864209918647
 31
0.0
  0
LINE
  5
F1
100
AcDbEntity
  8
NUT
  6
CONTINUOUS
100
AcDbLine
 10
11979.98785748701
 20
8628.676188383364
 30
0.0
 11
12004.98785748725
 21
8628.676188383478
 31
0.0
  0
LINE
  5
F2
100
AcDbEntity
  8
NUT
  6
CONTINUOUS
100
AcDbLine
 10
11979.98785748703
 20
8640.223193766972
 30
0.0
 11
12004.98785748725
 21
8640.223193767271
 31
0.0
  0
LINE
  5
F3
100
AcDbEntity
  8
NUT
  6
CONTINUOUS
100
AcDbLine
 10
11979.98785748708
 20
8663.317204534683
 30
0.0
 11
12004.98785748725
 21
8663.317204534857
 31
0.0
  0
LINE
  5
F4
100
AcDbEntity
  8
NUT
  6
CONTINUOUS
100
AcDbLine
 10
11969.98785748702
 20
8632.770199150964
 30
0.0
 11
11969.98785748713
 21
8670.770199150449
 31
0.0
  0
LINE
  5
F5
100
AcDbEntity
  8
NUT
  6
CONTINUOUS
100
AcDbLine
 10
11951.46636629977
 20
8660.779123929556
 30
0.0
 11
11954.77986726966
 21
8666.518275960335
 31
0.0
  0
LINE
  5
F6
100
AcDbEntity
  8
NUT
  6
CONTINUOUS
100
AcDbLine
 10
11946.27021387707
 20
8663.779123929556
 30
0.0
 11
11949.58371484695
 21
8669.518275960335
 31
0.0
  0
LINE
  5
F7
100
AcDbEntity
  8
NUT
  6
CONTINUOUS
100
AcDbLine
 10
11939.33170520026
 20
8663.779123929556
 30
0.0
 11
11936.01820423037
 21
8669.518275960333
 31
0.0
  0
LINE
  5
F8
100
AcDbEntity
  8
NUT
  6
CONTINUOUS
100
AcDbLine
 10
11934.13555277756
 20
8660.779123929554
 30
0.0
 11
11930.82205180767
 21
8666.518275960333
 31
0.0
  0
LINE
  5
F9
100
AcDbEntity
  8
NUT
  6
CONTINUOUS
100
AcDbLine
 10
11930.66629843915
 20
8654.770199151064
 30
0.0
 11
11924.03929649937
 21
8654.770199151064
 31
0.0
  0
LINE
  5
FA
100
AcDbEntity
  8
NUT
  6
CONTINUOUS
100
AcDbLine
 10
11930.66629843915
 20
8648.770199151062
 30
0.0
 11
11924.03929649937
 21
8648.770199151062
 31
0.0
  0
LINE
  5
FB
100
AcDbEntity
  8
NUT
  6
CONTINUOUS
100
AcDbLine
 10
11934.13555277756
 20
8642.761274372572
 30
0.0
 11
11930.82205180767
 21
8637.022122341793
 31
0.0
  0
LINE
  5
FC
100
AcDbEntity
  8
NUT
  6
CONTINUOUS
100
AcDbLine
 10
11939.33170520027
 20
8639.761274372574
 30
0.0
 11
11936.01820423038
 21
8634.022122341793
 31
0.0
  0
LINE
  5
FD
100
AcDbEntity
  8
NUT
  6
CONTINUOUS
100
AcDbLine
 10
11946.27021387707
 20
8639.76127437257
 30
0.0
 11
11949.58371484696
 21
8634.022122341789
 31
0.0
  0
LINE
  5
FE
100
AcDbEntity
  8
NUT
  6
CONTINUOUS
100
AcDbLine
 10
11951.46636629978
 20
8642.761274372572
 30
0.0
 11
11954.77986726967
 21
8637.022122341793
 31
0.0
  0
LINE
  5
FF
100
AcDbEntity
  8
NUT
  6
CONTINUOUS
100
AcDbLine
 10
11969.98785748706
 20
8654.770199150823
 30
0.0
 11
11979.98785748724
 21
8654.770199151066
 31
0.0
  0
LINE
  5
100
100
AcDbEntity
  8
NUT
  6
CONTINUOUS
100
AcDbLine
 10
11969.98785748705
 20
8648.770199151506
 30
0.0
 11
11979.98785748723
 21
8648.770199151064
 31
0.0
  0
LINE
  5
101
100
AcDbEntity
  8
NUT
  6
CONTINUOUS
100
AcDbLine
 10
11969.98785748708
 20
8666.518275960829
 30
0.0
 11
11979.98785748726
 21
8666.518275960335
 31
0.0
  0
LINE
  5
102
100
AcDbEntity
  8
NUT
  6
CONTINUOUS
100
AcDbLine
 10
11969.98785748709
 20
8669.518275960159
 30
0.0
 11
11979.98785748727
 21
8669.518275960335
 31
0.0
  0
LINE
  5
103
100
AcDbEntity
  8
NUT
  6
CONTINUOUS
100
AcDbLine
 10
11969.98785748709
 20
8670.770199150668
 30
0.0
 11
11979.98785748727
 21
8670.770199151064
 31
0.0
  0
LINE
  5
104
100
AcDbEntity
  8
NUT
  6
CONTINUOUS
100
AcDbLine
 10
11969.98785748702
 20
8632.770199151128
 30
0.0
 11
11979.9878574872
 21
8632.770199151064
 31
0.0
  0
LINE
  5
105
100
AcDbEntity
  8
NUT
  6
CONTINUOUS
100
AcDbLine
 10
11969.98785748702
 20
8634.022122341963
 30
0.0
 11
11979.9878574872
 21
8634.022122341789
 31
0.0
  0
LINE
  5
106
100
AcDbEntity
  8
NUT
  6
CONTINUOUS
100
AcDbLine
 10
11969.98785748703
 20
8637.02212234217
 30
0.0
 11
11979.98785748721
 21
8637.022122341793
 31
0.0
  0
LINE
  5
107
100
AcDbEntity
  8
NUT
  6
CONTINUOUS
100
AcDbLine
 10
12170.58181973191
 20
8672.383856397743
 30
0.0
 11
12170.58181973199
 21
8718.571877933106
 31
0.0
  0
LINE
  5
108
100
AcDbEntity
  8
NUT
  6
CONTINUOUS
100
AcDbLine
 10
12195.58181973217
 20
8695.477867165427
 30
0.0
 11
12195.58181973195
 21
8718.571877933106
 31
0.0
  0
LINE
  5
109
100
AcDbEntity
  8
NUT
  6
CONTINUOUS
100
AcDbLine
 10
12170.5818197318
 20
8718.571877933106
 30
0.0
 11
12195.58181973195
 21
8718.571877933028
 31
0.0
  0
LINE
  5
10A
100
AcDbEntity
  8
NUT
  6
CONTINUOUS
100
AcDbLine
 10
12170.58181973171
 20
8672.383856397747
 30
0.0
 11
12181.14806300246
 21
8672.3838563978
 31
0.0
  0
LINE
  5
10B
100
AcDbEntity
  8
NUT
  6
CONTINUOUS
100
AcDbLine
 10
12170.58181973174
 20
8683.930861781353
 30
0.0
 11
12188.36494136712
 21
8683.930861781286
 31
0.0
  0
LINE
  5
10C
100
AcDbEntity
  8
NUT
  6
CONTINUOUS
100
AcDbLine
 10
12170.58181973178
 20
8707.024872549064
 30
0.0
 11
12195.58181973195
 21
8707.024872549236
 31
0.0
  0
LINE
  5
10D
100
AcDbEntity
  8
NUT
  6
CONTINUOUS
100
AcDbLine
 10
12160.58181973172
 20
8676.477867165345
 30
0.0
 11
12160.58181973183
 21
8714.477867164829
 31
0.0
  0
LINE
  5
10E
100
AcDbEntity
  8
NUT
  6
CONTINUOUS
100
AcDbLine
 10
12160.58181973176
 20
8698.477867165204
 30
0.0
 11
12170.58181973194
 21
8698.477867165449
 31
0.0
  0
LINE
  5
10F
100
AcDbEntity
  8
NUT
  6
CONTINUOUS
100
AcDbLine
 10
12160.58181973175
 20
8692.477867165889
 30
0.0
 11
12170.58181973193
 21
8692.477867165447
 31
0.0
  0
LINE
  5
110
100
AcDbEntity
  8
NUT
  6
CONTINUOUS
100
AcDbLine
 10
12160.58181973179
 20
8710.22594397521
 30
0.0
 11
12170.58181973197
 21
8710.225943974718
 31
0.0
  0
LINE
  5
111
100
AcDbEntity
  8
NUT
  6
CONTINUOUS
100
AcDbLine
 10
12160.58181973179
 20
8713.22594397454
 30
0.0
 11
12170.58181973197
 21
8713.225943974718
 31
0.0
  0
LINE
  5
112
100
AcDbEntity
  8
NUT
  6
CONTINUOUS
100
AcDbLine
 10
12160.58181973179
 20
8714.477867165049
 30
0.0
 11
12170.58181973197
 21
8714.477867165447
 31
0.0
  0
LINE
  5
113
100
AcDbEntity
  8
NUT
  6
CONTINUOUS
100
AcDbLine
 10
12160.58181973172
 20
8676.477867165509
 30
0.0
 11
12170.5818197319
 21
8676.477867165445
 31
0.0
  0
LINE
  5
114
100
AcDbEntity
  8
NUT
  6
CONTINUOUS
100
AcDbLine
 10
12160.58181973172
 20
8677.729790356345
 30
0.0
 11
12170.5818197319
 21
8677.72979035617
 31
0.0
  0
LINE
  5
115
100
AcDbEntity
  8
NUT
  6
CONTINUOUS
100
AcDbLine
 10
12160.58181973173
 20
8680.729790356551
 30
0.0
 11
12170.58181973191
 21
8680.729790356174
 31
0.0
  0
LINE
  5
116
100
AcDbEntity
  8
NUT
  6
CONTINUOUS
100
AcDbLine
 10
12105.58181973222
 20
8562.383856397719
 30
0.0
 11
12105.58181973231
 21
8608.57187793308
 31
0.0
  0
LINE
  5
117
100
AcDbEntity
  8
NUT
  6
CONTINUOUS
100
AcDbLine
 10
12130.58181973266
 20
8565.693257475141
 30
0.0
 11
12130.58181973226
 21
8608.57187793308
 31
0.0
  0
LINE
  5
118
100
AcDbEntity
  8
NUT
  6
CONTINUOUS
100
AcDbLine
 10
12105.58181973211
 20
8608.57187793308
 30
0.0
 11
12130.58181973226
 21
8608.571877933004
 31
0.0
  0
LINE
  5
119
100
AcDbEntity
  8
NUT
  6
CONTINUOUS
100
AcDbLine
 10
12105.58181973203
 20
8562.383856397721
 30
0.0
 11
12120.58181973211
 21
8562.383856397774
 31
0.0
  0
LINE
  5
11A
100
AcDbEntity
  8
NUT
  6
CONTINUOUS
100
AcDbLine
 10
12105.58181973205
 20
8573.930861781327
 30
0.0
 11
12130.58181973226
 21
8573.930861781628
 31
0.0
  0
LINE
  5
11B
100
AcDbEntity
  8
NUT
  6
CONTINUOUS
100
AcDbLine
 10
12105.58181973209
 20
8597.024872549038
 30
0.0
 11
12130.58181973226
 21
8597.02487254921
 31
0.0
  0
LINE
  5
11C
100
AcDbEntity
  8
NUT
  6
CONTINUOUS
100
AcDbLine
 10
12095.58181973203
 20
8566.477867165321
 30
0.0
 11
12095.58181973215
 21
8604.477867164803
 31
0.0
  0
LINE
  5
11D
100
AcDbEntity
  8
NUT
  6
CONTINUOUS
100
AcDbLine
 10
12095.58181973208
 20
8588.477867165179
 30
0.0
 11
12105.58181973226
 21
8588.477867165421
 31
0.0
  0
LINE
  5
11E
100
AcDbEntity
  8
NUT
  6
CONTINUOUS
100
AcDbLine
 10
12095.58181973207
 20
8582.477867165861
 30
0.0
 11
12105.58181973225
 21
8582.477867165421
 31
0.0
  0
LINE
  5
11F
100
AcDbEntity
  8
NUT
  6
CONTINUOUS
100
AcDbLine
 10
12095.5818197321
 20
8600.225943975186
 30
0.0
 11
12105.58181973228
 21
8600.225943974692
 31
0.0
  0
LINE
  5
120
100
AcDbEntity
  8
NUT
  6
CONTINUOUS
100
AcDbLine
 10
12095.58181973211
 20
8603.225943974516
 30
0.0
 11
12105.58181973228
 21
8603.225943974692
 31
0.0
  0
LINE
  5
121
100
AcDbEntity
  8
NUT
  6
CONTINUOUS
100
AcDbLine
 10
12095.58181973211
 20
8604.477867165023
 30
0.0
 11
12105.58181973229
 21
8604.477867165419
 31
0.0
  0
LINE
  5
122
100
AcDbEntity
  8
NUT
  6
CONTINUOUS
100
AcDbLine
 10
12095.58181973204
 20
8566.477867165483
 30
0.0
 11
12105.58181973222
 21
8566.477867165421
 31
0.0
  0
LINE
  5
123
100
AcDbEntity
  8
NUT
  6
CONTINUOUS
100
AcDbLine
 10
12095.58181973204
 20
8567.72979035632
 30
0.0
 11
12105.58181973222
 21
8567.729790356144
 31
0.0
  0
LINE
  5
124
100
AcDbEntity
  8
NUT
  6
CONTINUOUS
100
AcDbLine
 10
12095.58181973205
 20
8570.729790356525
 30
0.0
 11
12105.58181973222
 21
8570.729790356148
 31
0.0
  0
LINE
  5
125
100
AcDbEntity
  8
NUT
  6
CONTINUOUS
100
AcDbLine
 10
12656.23273583116
 20
8672.383856397521
 30
0.0
 11
12656.23273583111
 21
8718.571877932882
 31
0.0
  0
LINE
  5
126
100
AcDbEntity
  8
NUT
  6
CONTINUOUS
100
AcDbLine
 10
12631.23273583092
 20
8695.477867165227
 30
0.0
 11
12631.23273583116
 21
8718.571877932904
 31
0.0
  0
LINE
  5
127
100
AcDbEntity
  8
NUT
  6
CONTINUOUS
100
AcDbLine
 10
12656.23273583131
 20
8718.571877932882
 30
0.0
 11
12631.23273583116
 21
8718.571877932827
 31
0.0
  0
LINE
  5
128
100
AcDbEntity
  8
NUT
  6
CONTINUOUS
100
AcDbLine
 10
12656.23273583135
 20
8672.383856397521
 30
0.0
 11
12645.6664925606
 21
8672.383856397585
 31
0.0
  0
LINE
  5
129
100
AcDbEntity
  8
NUT
  6
CONTINUOUS
100
AcDbLine
 10
12656.23273583134
 20
8683.93086178113
 30
0.0
 11
12638.44961419595
 21
8683.930861781078
 31
0.0
  0
LINE
  5
12A
100
AcDbEntity
  8
NUT
  6
CONTINUOUS
100
AcDbLine
 10
12656.23273583132
 20
8707.024872548839
 30
0.0
 11
12631.23273583115
 21
8707.024872549034
 31
0.0
  0
LINE
  5
12B
100
AcDbEntity
  8
NUT
  6
CONTINUOUS
100
AcDbLine
 10
12666.23273583135
 20
8676.477867165111
 30
0.0
 11
12666.23273583127
 21
8714.477867164596
 31
0.0
  0
LINE
  5
12C
100
AcDbEntity
  8
NUT
  6
CONTINUOUS
100
AcDbLine
 10
12666.23273583133
 20
8698.477867164969
 30
0.0
 11
12656.23273583115
 21
8698.477867165221
 31
0.0
  0
LINE
  5
12D
100
AcDbEntity
  8
NUT
  6
CONTINUOUS
100
AcDbLine
 10
12666.23273583133
 20
8692.477867165655
 30
0.0
 11
12656.23273583115
 21
8692.477867165221
 31
0.0
  0
LINE
  5
12E
100
AcDbEntity
  8
NUT
  6
CONTINUOUS
100
AcDbLine
 10
12666.23273583131
 20
8710.225943974975
 30
0.0
 11
12656.23273583113
 21
8710.225943974492
 31
0.0
  0
LINE
  5
12F
100
AcDbEntity
  8
NUT
  6
CONTINUOUS
100
AcDbLine
 10
12666.23273583131
 20
8713.225943974306
 30
0.0
 11
12656.23273583113
 21
8713.225943974492
 31
0.0
  0
LINE
  5
130
100
AcDbEntity
  8
NUT
  6
CONTINUOUS
100
AcDbLine
 10
12666.23273583131
 20
8714.477867164816
 30
0.0
 11
12656.23273583113
 21
8714.47786716522
 31
0.0
  0
LINE
  5
131
100
AcDbEntity
  8
NUT
  6
CONTINUOUS
100
AcDbLine
 10
12666.23273583135
 20
8676.477867165274
 30
0.0
 11
12656.23273583117
 21
8676.477867165221
 31
0.0
  0
LINE
  5
132
100
AcDbEntity
  8
NUT
  6
CONTINUOUS
100
AcDbLine
 10
12666.23273583135
 20
8677.72979035611
 30
0.0
 11
12656.23273583117
 21
8677.729790355947
 31
0.0
  0
LINE
  5
133
100
AcDbEntity
  8
NUT
  6
CONTINUOUS
100
AcDbLine
 10
12666.23273583134
 20
8680.729790356314
 30
0.0
 11
12656.23273583116
 21
8680.729790355949
 31
0.0
  0
LINE
  5
134
100
AcDbEntity
  8
NUT
  6
CONTINUOUS
100
AcDbLine
 10
12721.23273583078
 20
8562.383856397698
 30
0.0
 11
12721.23273583069
 21
8608.571877933057
 31
0.0
  0
LINE
  5
135
100
AcDbEntity
  8
NUT
  6
CONTINUOUS
100
AcDbLine
 10
12696.23273583034
 20
8565.693257475119
 30
0.0
 11
12696.23273583074
 21
8608.571877933057
 31
0.0
  0
LINE
  5
136
100
AcDbEntity
  8
NUT
  6
CONTINUOUS
100
AcDbLine
 10
12721.23273583088
 20
8608.571877933057
 30
0.0
 11
12696.23273583073
 21
8608.571877932982
 31
0.0
  0
LINE
  5
137
100
AcDbEntity
  8
NUT
  6
CONTINUOUS
100
AcDbLine
 10
12721.23273583097
 20
8562.383856397699
 30
0.0
 11
12706.23273583089
 21
8562.383856397753
 31
0.0
  0
LINE
  5
138
100
AcDbEntity
  8
NUT
  6
CONTINUOUS
100
AcDbLine
 10
12721.23273583095
 20
8573.930861781306
 30
0.0
 11
12696.23273583073
 21
8573.930861781606
 31
0.0
  0
LINE
  5
139
100
AcDbEntity
  8
NUT
  6
CONTINUOUS
100
AcDbLine
 10
12721.2327358309
 20
8597.024872549017
 30
0.0
 11
12696.23273583073
 21
8597.024872549191
 31
0.0
  0
LINE
  5
13A
100
AcDbEntity
  8
NUT
  6
CONTINUOUS
100
AcDbLine
 10
12731.23273583096
 20
8566.477867165298
 30
0.0
 11
12731.23273583085
 21
8604.477867164783
 31
0.0
  0
LINE
  5
13B
100
AcDbEntity
  8
NUT
  6
CONTINUOUS
100
AcDbLine
 10
12731.23273583092
 20
8588.477867165158
 30
0.0
 11
12721.23273583074
 21
8588.4778671654
 31
0.0
  0
LINE
  5
13C
100
AcDbEntity
  8
NUT
  6
CONTINUOUS
100
AcDbLine
 10
12731.23273583093
 20
8582.47786716584
 30
0.0
 11
12721.23273583075
 21
8582.477867165399
 31
0.0
  0
LINE
  5
13D
100
AcDbEntity
  8
NUT
  6
CONTINUOUS
100
AcDbLine
 10
12731.2327358309
 20
8600.225943975164
 30
0.0
 11
12721.23273583072
 21
8600.22594397467
 31
0.0
  0
LINE
  5
13E
100
AcDbEntity
  8
NUT
  6
CONTINUOUS
100
AcDbLine
 10
12731.23273583089
 20
8603.225943974495
 30
0.0
 11
12721.23273583071
 21
8603.22594397467
 31
0.0
  0
LINE
  5
13F
100
AcDbEntity
  8
NUT
  6
CONTINUOUS
100
AcDbLine
 10
12731.23273583089
 20
8604.477867165002
 30
0.0
 11
12721.23273583071
 21
8604.477867165398
 31
0.0
  0
LINE
  5
140
100
AcDbEntity
  8
NUT
  6
CONTINUOUS
100
AcDbLine
 10
12731.23273583096
 20
8566.477867165462
 30
0.0
 11
12721.23273583078
 21
8566.477867165399
 31
0.0
  0
LINE
  5
141
100
AcDbEntity
  8
NUT
  6
CONTINUOUS
100
AcDbLine
 10
12731.23273583096
 20
8567.729790356297
 30
0.0
 11
12721.23273583078
 21
8567.729790356125
 31
0.0
  0
LINE
  5
142
100
AcDbEntity
  8
NUT
  6
CONTINUOUS
100
AcDbLine
 10
12731.23273583095
 20
8570.729790356503
 30
0.0
 11
12721.23273583078
 21
8570.729790356127
 31
0.0
  0
LINE
  5
143
100
AcDbEntity
  8
BUMPSTOPFRAME
  6
CONTINUOUS
100
AcDbLine
 10
12210.58181973222
 20
8563.477867165365
 30
0.0
 11
12120.58181973211
 21
8563.477867165413
 31
0.0
  0
LINE
  5
144
100
AcDbEntity
  8
BUMPSTOPFRAME
  6
CONTINUOUS
100
AcDbLine
 10
12210.58181973223
 20
8551.477867165415
 30
0.0
 11
12120.58181973209
 21
8551.477867165411
 31
0.0
  0
LINE
  5
145
100
AcDbEntity
  8
RUBBERPAD
  6
CONTINUOUS
100
AcDbLine
 10
12177.12882511634
 20
8573.477867165165
 30
0.0
 11
12177.12882511602
 21
8563.477867165389
 31
0.0
  0
LINE
  5
146
100
AcDbEntity
  8
RUBBERPAD
  6
CONTINUOUS
100
AcDbLine
 10
12171.35532242447
 20
8573.477867165184
 30
0.0
 11
12171.35532242412
 21
8563.477867164863
 31
0.0
  0
LINE
  5
147
100
AcDbEntity
  8
RUBBERPAD
  6
CONTINUOUS
100
AcDbLine
 10
12159.80831703956
 20
8573.477867165218
 30
0.0
 11
12159.80831704033
 21
8563.477867164737
 31
0.0
  0
LINE
  5
148
100
AcDbEntity
  8
RUBBERPAD
  6
CONTINUOUS
100
AcDbLine
 10
12154.03481434834
 20
8573.477867165236
 30
0.0
 11
12154.03481434843
 21
8563.477867165401
 31
0.0
  0
ARC
  5
149
100
AcDbEntity
  8
BUMPSTOPFRAME
  6
CONTINUOUS
100
AcDbCircle
 10
12413.40727778156
 20
8695.477867165376
 30
0.0
 40
30.0
100
AcDbArc
 50
178.9926450464942
 51
3.441039281935145
  0
ARC
  5
14A
100
AcDbEntity
  8
BUMPSTOPFRAME
  6
CONTINUOUS
100
AcDbCircle
 10
12413.40727778156
 20
8695.477867165376
 30
0.0
 40
30.0
100
AcDbArc
 50
24.99999999999962
 51
154.9999999999997
  0
TEXT
  5
14C
100
AcDbEntity
  8
COMMENTS
100
AcDbText
 10
12502.00907896733
 20
8815.733062171897
 30
0.0
 40
7.743169389305415
  1
Drg version 1.0 / 14 Nov 2013
 41
0.6000000000000001
  7
ARIAL
 11
12502.00907896733
 21
8815.733062171897
 31
0.0
100
AcDbText
 73
     1
  0
TEXT
  5
14D
100
AcDbEntity
  8
COMMENTS
  6
CONTINUOUS
100
AcDbText
 10
11894.70200119723
 20
8741.477175820659
 30
0.0
 40
7.743169389305415
  1
TO DO: the nut and bolt head
 41
0.6000000000000001
  7
ARIAL
 11
11894.70200119723
 21
8741.477175820659
 31
0.0
100
AcDbText
 73
     1
  0
TEXT
  5
14E
100
AcDbEntity
  8
COMMENTS
  6
CONTINUOUS
100
AcDbText
 10
11894.70200119723
 20
8729.862421736699
 30
-11.61475408395812
 40
7.743169389305415
  1
are drawn from photos. Find 
 41
0.6000000000000001
  7
ARIAL
 11
11894.70200119723
 21
8729.862421736699
 31
-11.61475408395812
100
AcDbText
 73
     1
  0
TEXT
  5
14F
100
AcDbEntity
  8
COMMENTS
  6
CONTINUOUS
100
AcDbText
 10
11894.70200119723
 20
8718.247667652743
 30
-23.22950816791624
 40
7.743169389305415
  1
the relevant DIN standards.
 41
0.6000000000000001
  7
ARIAL
 11
11894.70200119723
 21
8718.247667652743
 31
-23.22950816791624
100
AcDbText
 73
     1
  0
ENDSEC
  0
SECTION
  2
OBJECTS
  0
DICTIONARY
  5
C
100
AcDbDictionary
  3
ACAD_GROUP
350
D
  3
ACAD_MLINESTYLE
350
1B
  3
ACDBVARIABLEDICTIONARY
350
1E
  0
DICTIONARY
  5
D
102
{ACAD_REACTORS
330
C
102
}
100
AcDbDictionary
  0
DICTIONARY
  5
1B
102
{ACAD_REACTORS
330
C
102
}
100
AcDbDictionary
  3
STANDARD
350
1C
  0
DICTIONARY
  5
1E
102
{ACAD_REACTORS
330
C
102
}
100
AcDbDictionary
  3
DIMADEC
350
1F
  0
MLINESTYLE
  5
1C
102
{ACAD_REACTORS
330
1B
102
}
100
AcDbMlineStyle
  2
STANDARD
 70
     0
  3

 62
   256
 51
90.0
 52
90.0
 71
     2
 49
0.5
 62
   256
  6
BYLAYER
 49
-0.5
 62
   256
  6
BYLAYER
  0
DICTIONARYVAR
  5
1F
102
{ACAD_REACTORS
330
1E
102
}
100
DictionaryVariables
280
     0
  1
-1
  0
ENDSEC
  0
EOF
