  0
SECTION
  2
HEADER
  9
$ACADVER
  1
AC1014
  9
$ACADMAINTVER
 70
     5
  9
$DWGCODEPAGE
  3
ANSI_1252
  9
$INSBASE
 10
0.0
 20
0.0
 30
0.0
  9
$EXTMIN
 10
1.000000000000000E+20
 20
1.000000000000000E+20
 30
1.000000000000000E+20
  9
$EXTMAX
 10
-1.000000000000000E+20
 20
-1.000000000000000E+20
 30
-1.000000000000000E+20
  9
$LIMMIN
 10
0.0
 20
0.0
  9
$LIMMAX
 10
12.0
 20
9.0
  9
$ORTHOMODE
 70
     0
  9
$REGENMODE
 70
     1
  9
$FILLMODE
 70
     1
  9
$QTEXTMODE
 70
     0
  9
$MIRRTEXT
 70
     1
  9
$DRAGMODE
 70
     2
  9
$LTSCALE
 40
1.0
  9
$OSMODE
 70
     0
  9
$ATTMODE
 70
     0
  9
$TEXTSIZE
 40
247.5288659096885
  9
$TRACEWID
 40
0.05
  9
$TEXTSTYLE
  7
STANDARD
  9
$CLAYER
  8
0
  9
$CELTYPE
  6
BYLAYER
  9
$CECOLOR
 62
   256
  9
$CELTSCALE
 40
1.0
  9
$DELOBJ
 70
     1
  9
$DISPSILH
 70
     0
  9
$DIMSCALE
 40
1.0
  9
$DIMASZ
 40
0.18
  9
$DIMEXO
 40
0.0625
  9
$DIMDLI
 40
0.38
  9
$DIMRND
 40
0.0
  9
$DIMDLE
 40
0.0
  9
$DIMEXE
 40
0.18
  9
$DIMTP
 40
0.0
  9
$DIMTM
 40
0.0
  9
$DIMTXT
 40
3.898092376530528
  9
$DIMCEN
 40
0.09
  9
$DIMTSZ
 40
0.0
  9
$DIMTOL
 70
     0
  9
$DIMLIM
 70
     0
  9
$DIMTIH
 70
     1
  9
$DIMTOH
 70
     1
  9
$DIMSE1
 70
     0
  9
$DIMSE2
 70
     0
  9
$DIMTAD
 70
     0
  9
$DIMZIN
 70
     0
  9
$DIMBLK
  1

  9
$DIMASO
 70
     1
  9
$DIMSHO
 70
     1
  9
$DIMPOST
  1

  9
$DIMAPOST
  1

  9
$DIMALT
 70
     0
  9
$DIMALTD
 70
     2
  9
$DIMALTF
 40
25.4
  9
$DIMLFAC
 40
1.0
  9
$DIMTOFL
 70
     0
  9
$DIMTVP
 40
0.0
  9
$DIMTIX
 70
     0
  9
$DIMSOXD
 70
     0
  9
$DIMSAH
 70
     0
  9
$DIMBLK1
  1

  9
$DIMBLK2
  1

  9
$DIMSTYLE
  2
STANDARD
  9
$DIMCLRD
 70
     0
  9
$DIMCLRE
 70
     0
  9
$DIMCLRT
 70
     0
  9
$DIMTFAC
 40
1.0
  9
$DIMGAP
 40
0.09
  9
$DIMJUST
 70
     0
  9
$DIMSD1
 70
     0
  9
$DIMSD2
 70
     0
  9
$DIMTOLJ
 70
     1
  9
$DIMTZIN
 70
     0
  9
$DIMALTZ
 70
     0
  9
$DIMALTTZ
 70
     0
  9
$DIMFIT
 70
     3
  9
$DIMUPT
 70
     0
  9
$DIMUNIT
 70
     4
  9
$DIMDEC
 70
    -1
  9
$DIMTDEC
 70
     4
  9
$DIMALTU
 70
     2
  9
$DIMALTTD
 70
     2
  9
$DIMTXSTY
  7
STANDARD
  9
$DIMAUNIT
 70
     1
  9
$LUNITS
 70
     2
  9
$LUPREC
 70
     0
  9
$SKETCHINC
 40
0.1
  9
$FILLETRAD
 40
4.999999999999999
  9
$AUNITS
 70
     0
  9
$AUPREC
 70
     2
  9
$MENU
  1
.
  9
$ELEVATION
 40
0.0
  9
$PELEVATION
 40
0.0
  9
$THICKNESS
 40
0.0
  9
$LIMCHECK
 70
     0
  9
$BLIPMODE
 70
     0
  9
$CHAMFERA
 40
3.999999999999999
  9
$CHAMFERB
 40
3.999999999999999
  9
$CHAMFERC
 40
0.0
  9
$CHAMFERD
 40
0.0
  9
$SKPOLY
 70
     0
  9
$TDCREATE
 40
0.0000000000
  9
$TDUPDATE
 40
0.0000000000
  9
$TDINDWG
 40
0.0000000000
  9
$TDUSRTIMER
 40
0.0000000000
  9
$USRTIMER
 70
     1
  9
$ANGBASE
 50
0.0
  9
$ANGDIR
 70
     0
  9
$PDMODE
 70
     0
  9
$PDSIZE
 40
0.0
  9
$PLINEWID
 40
0.0
  9
$COORDS
 70
     1
  9
$SPLFRAME
 70
     0
  9
$SPLINETYPE
 70
     6
  9
$SPLINESEGS
 70
     8
  9
$ATTDIA
 70
     0
  9
$ATTREQ
 70
     1
  9
$HANDLING
 70
     1
  9
$HANDSEED
  5
194
  9
$SURFTAB1
 70
     6
  9
$SURFTAB2
 70
     6
  9
$SURFTYPE
 70
     6
  9
$SURFU
 70
     6
  9
$SURFV
 70
     6
  9
$UCSNAME
  2

  9
$UCSORG
 10
0.0
 20
0.0
 30
0.0
  9
$UCSXDIR
 10
1.0
 20
0.0
 30
0.0
  9
$UCSYDIR
 10
0.0
 20
1.0
 30
0.0
  9
$PUCSNAME
  2

  9
$PUCSORG
 10
0.0
 20
0.0
 30
0.0
  9
$PUCSXDIR
 10
1.0
 20
0.0
 30
0.0
  9
$PUCSYDIR
 10
0.0
 20
1.0
 30
0.0
  9
$USERI1
 70
     0
  9
$USERI2
 70
     0
  9
$USERI3
 70
     0
  9
$USERI4
 70
     0
  9
$USERI5
 70
     0
  9
$USERR1
 40
0.0
  9
$USERR2
 40
0.0
  9
$USERR3
 40
0.0
  9
$USERR4
 40
0.0
  9
$USERR5
 40
0.0
  9
$WORLDVIEW
 70
     1
  9
$SHADEDGE
 70
     3
  9
$SHADEDIF
 70
    70
  9
$TILEMODE
 70
     1
  9
$MAXACTVP
 70
    48
  9
$PINSBASE
 10
0.0
 20
0.0
 30
0.0
  9
$PLIMCHECK
 70
     0
  9
$PEXTMIN
 10
1.000000000000000E+20
 20
1.000000000000000E+20
 30
1.000000000000000E+20
  9
$PEXTMAX
 10
-1.000000000000000E+20
 20
-1.000000000000000E+20
 30
-1.000000000000000E+20
  9
$PLIMMIN
 10
0.0
 20
0.0
  9
$PLIMMAX
 10
12.0
 20
9.0
  9
$UNITMODE
 70
     0
  9
$VISRETAIN
 70
     1
  9
$PLINEGEN
 70
     0
  9
$PSLTSCALE
 70
     1
  9
$TREEDEPTH
 70
  3020
  9
$PICKSTYLE
 70
     1
  9
$CMLSTYLE
  2
STANDARD
  9
$CMLJUST
 70
     0
  9
$CMLSCALE
 40
1.0
  9
$PROXYGRAPHICS
 70
     1
  9
$MEASUREMENT
 70
     0
  0
ENDSEC
  0
SECTION
  2
CLASSES
  0
CLASS
  1
DICTIONARYVAR
  2
AcDbDictionaryVar
  3
"AutoCAD"
 90
        0
280
     0
281
     0
  0
CLASS
  1
LWPOLYLINE
  2
AcDbPolyline
  3
"AutoCAD"
 90
        0
280
     0
281
     1
  0
ENDSEC
  0
SECTION
  2
TABLES
  0
TABLE
  2
VPORT
  5
8
100
AcDbSymbolTable
 70
     1
  0
VPORT
  5
11
100
AcDbSymbolTableRecord
100
AcDbViewportTableRecord
  2
*ACTIVE
 70
     0
 10
0.0
 20
0.0
 11
1.0
 21
1.0
 12
3.6
 22
4.5
 13
0.0
 23
0.0
 14
1.0
 24
1.0
 15
0.0
 25
0.0
 16
0.0
 26
0.0
 36
1.0
 17
0.0
 27
0.0
 37
0.0
 40
15.0
 41
0.8
 42
50.0
 43
0.0
 44
0.0
 50
0.0
 51
0.0
 71
     0
 72
   100
 73
     1
 74
     1
 75
     0
 76
     0
 77
     0
 78
     0
  0
ENDTAB
  0
TABLE
  2
LTYPE
  5
5
100
AcDbSymbolTable
 70
    40
  0
LTYPE
  5
12
100
AcDbSymbolTableRecord
100
AcDbLinetypeTableRecord
  2
BYBLOCK
 70
     0
  3

 72
    65
 73
     0
 40
0.0
  0
LTYPE
  5
13
100
AcDbSymbolTableRecord
100
AcDbLinetypeTableRecord
  2
BYLAYER
 70
     0
  3

 72
    65
 73
     0
 40
0.0
  0
LTYPE
  5
14
100
AcDbSymbolTableRecord
100
AcDbLinetypeTableRecord
  2
CONTINUOUS
 70
     0
  3
Solid line
 72
    65
 73
     0
 40
0.0
  0
LTYPE
  5
20
100
AcDbSymbolTableRecord
100
AcDbLinetypeTableRecord
  2
HIDDEN
 70
     0
  3
_ _ _ _ _ _ _ _ _ _ _ _ _ _ 
 72
    65
 73
     2
 40
9.524999999999998
 49
6.349999999999999
 74
     0
 49
-3.174999999999999
 74
     0
  0
LTYPE
  5
21
100
AcDbSymbolTableRecord
100
AcDbLinetypeTableRecord
  2
DASHED
 70
     0
  3
__ __ __ __ __ __ __ __ __ 
 72
    65
 73
     2
 40
19.04999999999999
 49
12.7
 74
     0
 49
-6.349999999999999
 74
     0
  0
LTYPE
  5
22
100
AcDbSymbolTableRecord
100
AcDbLinetypeTableRecord
  2
CENTER
 70
     0
  3
____ _ ____ _ ____ _ ____ _ 
 72
    65
 73
     4
 40
50.8
 49
31.75
 74
     0
 49
-6.349999999999999
 74
     0
 49
6.349999999999999
 74
     0
 49
-6.349999999999999
 74
     0
  0
LTYPE
  5
23
100
AcDbSymbolTableRecord
100
AcDbLinetypeTableRecord
  2
PHANTOM
 70
     0
  3
_____ _ _ _____ _ _ _____ _ _ 
 72
    65
 73
     6
 40
63.50000000000001
 49
31.75
 74
     0
 49
-6.349999999999999
 74
     0
 49
6.349999999999999
 74
     0
 49
-6.349999999999999
 74
     0
 49
6.349999999999999
 74
     0
 49
-6.349999999999999
 74
     0
  0
LTYPE
  5
24
100
AcDbSymbolTableRecord
100
AcDbLinetypeTableRecord
  2
DOT
 70
     0
  3
...........................
 72
    65
 73
     2
 40
6.349999999999999
 49
0.0
 74
     0
 49
-6.349999999999999
 74
     0
  0
LTYPE
  5
25
100
AcDbSymbolTableRecord
100
AcDbLinetypeTableRecord
  2
DASHDOT
 70
     0
  3
__ . __ . __ . __ . __ . __ . 
 72
    65
 73
     4
 40
25.4
 49
12.7
 74
     0
 49
-6.349999999999999
 74
     0
 49
0.0
 74
     0
 49
-6.349999999999999
 74
     0
  0
LTYPE
  5
26
100
AcDbSymbolTableRecord
100
AcDbLinetypeTableRecord
  2
DIVIDE
 70
     0
  3
__ . . __ . . __ . . __ . . 
 72
    65
 73
     6
 40
31.75
 49
12.7
 74
     0
 49
-6.349999999999999
 74
     0
 49
0.0
 74
     0
 49
-6.349999999999999
 74
     0
 49
0.0
 74
     0
 49
-6.349999999999999
 74
     0
  0
LTYPE
  5
27
100
AcDbSymbolTableRecord
100
AcDbLinetypeTableRecord
  2
BORDER
 70
     0
  3
__ __ . __ __ . __ __ . __ __ .
 72
    65
 73
     6
 40
44.44999999999999
 49
12.7
 74
     0
 49
-6.349999999999999
 74
     0
 49
12.7
 74
     0
 49
-6.349999999999999
 74
     0
 49
0.0
 74
     0
 49
-6.349999999999999
 74
     0
  0
LTYPE
  5
28
100
AcDbSymbolTableRecord
100
AcDbLinetypeTableRecord
  2
BORDER2
 70
     0
  3
Border (.5x) __.__.__.__.__.__.
 72
    65
 73
     6
 40
0.875
 49
0.25
 74
     0
 49
-0.125
 74
     0
 49
0.25
 74
     0
 49
-0.125
 74
     0
 49
0.0
 74
     0
 49
-0.125
 74
     0
  0
LTYPE
  5
29
100
AcDbSymbolTableRecord
100
AcDbLinetypeTableRecord
  2
BORDERX2
 70
     0
  3
Border (2x) ____  ____  .  ____
 72
    65
 73
     6
 40
3.5
 49
1.0
 74
     0
 49
-0.5
 74
     0
 49
1.0
 74
     0
 49
-0.5
 74
     0
 49
0.0
 74
     0
 49
-0.5
 74
     0
  0
LTYPE
  5
2A
100
AcDbSymbolTableRecord
100
AcDbLinetypeTableRecord
  2
CENTER2
 70
     0
  3
Center (.5x) ___ _ ___ _ ___ _ 
 72
    65
 73
     4
 40
1.125
 49
0.75
 74
     0
 49
-0.125
 74
     0
 49
0.125
 74
     0
 49
-0.125
 74
     0
  0
LTYPE
  5
2B
100
AcDbSymbolTableRecord
100
AcDbLinetypeTableRecord
  2
CENTERX2
 70
     0
  3
Center (2x) ________  __  _____
 72
    65
 73
     4
 40
4.0
 49
2.5
 74
     0
 49
-0.5
 74
     0
 49
0.5
 74
     0
 49
-0.5
 74
     0
  0
LTYPE
  5
2C
100
AcDbSymbolTableRecord
100
AcDbLinetypeTableRecord
  2
DASHDOT2
 70
     0
  3
Dash dot (.5x) _._._._._._._._.
 72
    65
 73
     4
 40
0.5
 49
0.25
 74
     0
 49
-0.125
 74
     0
 49
0.0
 74
     0
 49
-0.125
 74
     0
  0
LTYPE
  5
2D
100
AcDbSymbolTableRecord
100
AcDbLinetypeTableRecord
  2
DASHDOTX2
 70
     0
  3
Dash dot (2x) ____  .  ____  . 
 72
    65
 73
     4
 40
2.0
 49
1.0
 74
     0
 49
-0.5
 74
     0
 49
0.0
 74
     0
 49
-0.5
 74
     0
  0
LTYPE
  5
2E
100
AcDbSymbolTableRecord
100
AcDbLinetypeTableRecord
  2
DASHED2
 70
     0
  3
Dashed (.5x) _ _ _ _ _ _ _ _ _ 
 72
    65
 73
     2
 40
0.375
 49
0.25
 74
     0
 49
-0.125
 74
     0
  0
LTYPE
  5
2F
100
AcDbSymbolTableRecord
100
AcDbLinetypeTableRecord
  2
DASHEDX2
 70
     0
  3
Dashed (2x) ____  ____  ____  _
 72
    65
 73
     2
 40
1.5
 49
1.0
 74
     0
 49
-0.5
 74
     0
  0
LTYPE
  5
30
100
AcDbSymbolTableRecord
100
AcDbLinetypeTableRecord
  2
DIVIDE2
 70
     0
  3
Divide (.5x) __..__..__..__..__
 72
    65
 73
     6
 40
0.625
 49
0.25
 74
     0
 49
-0.125
 74
     0
 49
0.0
 74
     0
 49
-0.125
 74
     0
 49
0.0
 74
     0
 49
-0.125
 74
     0
  0
LTYPE
  5
31
100
AcDbSymbolTableRecord
100
AcDbLinetypeTableRecord
  2
DIVIDEX2
 70
     0
  3
Divide (2x) ________  .  .  ___
 72
    65
 73
     6
 40
2.5
 49
1.0
 74
     0
 49
-0.5
 74
     0
 49
0.0
 74
     0
 49
-0.5
 74
     0
 49
0.0
 74
     0
 49
-0.5
 74
     0
  0
LTYPE
  5
32
100
AcDbSymbolTableRecord
100
AcDbLinetypeTableRecord
  2
DOT2
 70
     0
  3
Dot (.5x) .....................
 72
    65
 73
     2
 40
0.125
 49
0.0
 74
     0
 49
-0.125
 74
     0
  0
LTYPE
  5
33
100
AcDbSymbolTableRecord
100
AcDbLinetypeTableRecord
  2
DOTX2
 70
     0
  3
Dot (2x) .  .  .  .  .  .  .  .
 72
    65
 73
     2
 40
0.5
 49
0.0
 74
     0
 49
-0.5
 74
     0
  0
LTYPE
  5
34
100
AcDbSymbolTableRecord
100
AcDbLinetypeTableRecord
  2
HIDDEN2
 70
     0
  3
Hidden (.5x) _ _ _ _ _ _ _ _ _ 
 72
    65
 73
     2
 40
0.1875
 49
0.125
 74
     0
 49
-0.0625
 74
     0
  0
LTYPE
  5
35
100
AcDbSymbolTableRecord
100
AcDbLinetypeTableRecord
  2
HIDDENX2
 70
     0
  3
Hidden (2x) ____ ____ ____ ____
 72
    65
 73
     2
 40
0.75
 49
0.5
 74
     0
 49
-0.25
 74
     0
  0
LTYPE
  5
36
100
AcDbSymbolTableRecord
100
AcDbLinetypeTableRecord
  2
PHANTOM2
 70
     0
  3
Phantom (.5x) ___ _ _ ___ _ _ _
 72
    65
 73
     6
 40
1.25
 49
0.625
 74
     0
 49
-0.125
 74
     0
 49
0.125
 74
     0
 49
-0.125
 74
     0
 49
0.125
 74
     0
 49
-0.125
 74
     0
  0
LTYPE
  5
37
100
AcDbSymbolTableRecord
100
AcDbLinetypeTableRecord
  2
PHANTOMX2
 70
     0
  3
Phantom (2x) ____________    __
 72
    65
 73
     6
 40
5.0
 49
2.5
 74
     0
 49
-0.5
 74
     0
 49
0.5
 74
     0
 49
-0.5
 74
     0
 49
0.5
 74
     0
 49
-0.5
 74
     0
  0
LTYPE
  5
38
100
AcDbSymbolTableRecord
100
AcDbLinetypeTableRecord
  2
DOTS
 70
     0
  3
Dots - - - - - - - - - - - - - 
 72
    65
 73
     2
 40
0.1
 49
0.05
 74
     0
 49
-0.05
 74
     0
  0
LTYPE
  5
39
100
AcDbSymbolTableRecord
100
AcDbLinetypeTableRecord
  2
ACAD_ISO02W100
 70
     0
  3
__ __ __ __ __ __ __ __ __ __ _
 72
    65
 73
     2
 40
15.0
 49
12.0
 74
     0
 49
-3.0
 74
     0
  0
LTYPE
  5
3A
100
AcDbSymbolTableRecord
100
AcDbLinetypeTableRecord
  2
ACAD_ISO03W100
 70
     0
  3
__    __    __    __    __    _
 72
    65
 73
     2
 40
30.0
 49
12.0
 74
     0
 49
-18.0
 74
     0
  0
LTYPE
  5
3B
100
AcDbSymbolTableRecord
100
AcDbLinetypeTableRecord
  2
ACAD_ISO04W100
 70
     0
  3
____ . ____ . ____ . ____ . ___
 72
    65
 73
     4
 40
30.5
 49
24.0
 74
     0
 49
-3.0
 74
     0
 49
0.5
 74
     0
 49
-3.0
 74
     0
  0
LTYPE
  5
3C
100
AcDbSymbolTableRecord
100
AcDbLinetypeTableRecord
  2
ACAD_ISO05W100
 70
     0
  3
____ .. ____ .. ____ .. ____ ..
 72
    65
 73
     6
 40
34.0
 49
24.0
 74
     0
 49
-3.0
 74
     0
 49
0.5
 74
     0
 49
-3.0
 74
     0
 49
0.5
 74
     0
 49
-3.0
 74
     0
  0
LTYPE
  5
3D
100
AcDbSymbolTableRecord
100
AcDbLinetypeTableRecord
  2
ACAD_ISO06W100
 70
     0
  3
____ ... ____ ... ____ ... ____
 72
    65
 73
     6
 40
34.0
 49
24.0
 74
     0
 49
-3.0
 74
     0
 49
0.5
 74
     0
 49
-3.0
 74
     0
 49
0.5
 74
     0
 49
-3.0
 74
     0
  0
LTYPE
  5
3E
100
AcDbSymbolTableRecord
100
AcDbLinetypeTableRecord
  2
ACAD_ISO07W100
 70
     0
  3
. . . . . . . . . . . . . . . .
 72
    65
 73
     2
 40
3.5
 49
0.5
 74
     0
 49
-3.0
 74
     0
  0
LTYPE
  5
3F
100
AcDbSymbolTableRecord
100
AcDbLinetypeTableRecord
  2
ACAD_ISO08W100
 70
     0
  3
____ __ ____ __ ____ __ ____ __
 72
    65
 73
     4
 40
36.0
 49
24.0
 74
     0
 49
-3.0
 74
     0
 49
6.0
 74
     0
 49
-3.0
 74
     0
  0
LTYPE
  5
40
100
AcDbSymbolTableRecord
100
AcDbLinetypeTableRecord
  2
ACAD_ISO09W100
 70
     0
  3
____ __ __ ____ __ __ ____ __ _
 72
    65
 73
     6
 40
45.0
 49
24.0
 74
     0
 49
-3.0
 74
     0
 49
6.0
 74
     0
 49
-3.0
 74
     0
 49
6.0
 74
     0
 49
-3.0
 74
     0
  0
LTYPE
  5
41
100
AcDbSymbolTableRecord
100
AcDbLinetypeTableRecord
  2
ACAD_ISO10W100
 70
     0
  3
__ . __ . __ . __ . __ . __ . _
 72
    65
 73
     4
 40
18.5
 49
12.0
 74
     0
 49
-3.0
 74
     0
 49
0.5
 74
     0
 49
-3.0
 74
     0
  0
LTYPE
  5
42
100
AcDbSymbolTableRecord
100
AcDbLinetypeTableRecord
  2
ACAD_ISO11W100
 70
     0
  3
__ __ . __ __ . __ __ . __ __ .
 72
    65
 73
     6
 40
33.5
 49
12.0
 74
     0
 49
-3.0
 74
     0
 49
12.0
 74
     0
 49
-3.0
 74
     0
 49
0.5
 74
     0
 49
-3.0
 74
     0
  0
LTYPE
  5
43
100
AcDbSymbolTableRecord
100
AcDbLinetypeTableRecord
  2
ACAD_ISO12W100
 70
     0
  3
__ . . __ . . __ . . __ . . __ 
 72
    65
 73
     6
 40
22.0
 49
12.0
 74
     0
 49
-3.0
 74
     0
 49
0.5
 74
     0
 49
-3.0
 74
     0
 49
0.5
 74
     0
 49
-3.0
 74
     0
  0
LTYPE
  5
44
100
AcDbSymbolTableRecord
100
AcDbLinetypeTableRecord
  2
ACAD_ISO13W100
 70
     0
  3
__ __ . . __ __ . . __ __ . . _
 72
    65
 73
     6
 40
33.5
 49
12.0
 74
     0
 49
-3.0
 74
     0
 49
12.0
 74
     0
 49
-3.0
 74
     0
 49
0.5
 74
     0
 49
-3.0
 74
     0
  0
LTYPE
  5
45
100
AcDbSymbolTableRecord
100
AcDbLinetypeTableRecord
  2
ACAD_ISO14W100
 70
     0
  3
__ . . . __ . . . __ . . . __ .
 72
    65
 73
     6
 40
22.0
 49
12.0
 74
     0
 49
-3.0
 74
     0
 49
0.5
 74
     0
 49
-3.0
 74
     0
 49
0.5
 74
     0
 49
-3.0
 74
     0
  0
LTYPE
  5
46
100
AcDbSymbolTableRecord
100
AcDbLinetypeTableRecord
  2
ACAD_ISO15W100
 70
     0
  3
__ __ . . . __ __ . . . __ __ .
 72
    65
 73
     6
 40
33.5
 49
12.0
 74
     0
 49
-3.0
 74
     0
 49
12.0
 74
     0
 49
-3.0
 74
     0
 49
0.5
 74
     0
 49
-3.0
 74
     0
  0
ENDTAB
  0
TABLE
  2
LAYER
  5
2
100
AcDbSymbolTable
 70
     8
  0
LAYER
  5
E
100
AcDbSymbolTableRecord
100
AcDbLayerTableRecord
  2
0
 70
     0
 62
     7
  6
CONTINUOUS
  0
LAYER
  5
47
100
AcDbSymbolTableRecord
100
AcDbLayerTableRecord
  2
ARMOUR
 70
     0
 62
     7
  6
CONTINUOUS
  0
LAYER
  5
48
100
AcDbSymbolTableRecord
100
AcDbLayerTableRecord
  2
AXES
 70
     0
 62
     1
  6
CONTINUOUS
  0
LAYER
  5
49
100
AcDbSymbolTableRecord
100
AcDbLayerTableRecord
  2
BIN
 70
     0
 62
     7
  6
CONTINUOUS
  0
LAYER
  5
4A
100
AcDbSymbolTableRecord
100
AcDbLayerTableRecord
  2
COMMENTS
 70
     0
 62
    94
  6
CONTINUOUS
  0
LAYER
  5
4B
100
AcDbSymbolTableRecord
100
AcDbLayerTableRecord
  2
HATCH
 70
     1
 62
     7
  6
CONTINUOUS
  0
LAYER
  5
4C
100
AcDbSymbolTableRecord
100
AcDbLayerTableRecord
  2
LID
 70
     0
 62
     7
  6
CONTINUOUS
  0
LAYER
  5
4D
100
AcDbSymbolTableRecord
100
AcDbLayerTableRecord
  2
PISTOLPORT
 70
     4
 62
     7
  6
CONTINUOUS
  0
ENDTAB
  0
TABLE
  2
STYLE
  5
3
100
AcDbSymbolTable
 70
     5
  0
STYLE
  5
F
100
AcDbSymbolTableRecord
100
AcDbTextStyleTableRecord
  2
STANDARD
 70
     0
 40
0.0
 41
1.0
 50
0.0
 71
     0
 42
247.5288659096885
  3
txt
  4

  0
STYLE
  5
4E
100
AcDbSymbolTableRecord
100
AcDbTextStyleTableRecord
  2
ITALIC
 70
     0
 40
0.0
 41
1.0
 50
0.0
 71
     0
 42
247.5288659096885
  3
ITALIC
  4

  0
STYLE
  5
4F
100
AcDbSymbolTableRecord
100
AcDbTextStyleTableRecord
  2
SIMPLEX
 70
     0
 40
0.0
 41
1.0
 50
0.0
 71
     0
 42
247.5288659096885
  3
SIMPLEX
  4

  0
STYLE
  5
50
100
AcDbSymbolTableRecord
100
AcDbTextStyleTableRecord
  2
COMPLEX
 70
     0
 40
0.0
 41
1.0
 50
0.0
 71
     0
 42
247.5288659096885
  3
COMPLEX
  4

  0
STYLE
  5
E8
100
AcDbSymbolTableRecord
100
AcDbTextStyleTableRecord
  2
ARIAL
 70
     0
 40
0.0
 41
1.0
 50
0.0
 71
     0
 42
247.5288659096885
  3
ARIAL.TTF
  4

1001
ACAD
1000
Arial
1071
        0
  0
ENDTAB
  0
TABLE
  2
VIEW
  5
6
100
AcDbSymbolTable
 70
     0
  0
ENDTAB
  0
TABLE
  2
UCS
  5
7
100
AcDbSymbolTable
 70
     0
  0
ENDTAB
  0
TABLE
  2
APPID
  5
9
100
AcDbSymbolTable
 70
     1
  0
APPID
  5
10
100
AcDbSymbolTableRecord
100
AcDbRegAppTableRecord
  2
ACAD
 70
     0
  0
ENDTAB
  0
TABLE
  2
DIMSTYLE
  5
A
100
AcDbSymbolTable
 70
     1
  0
DIMSTYLE
105
1D
100
AcDbSymbolTableRecord
100
AcDbDimStyleTableRecord
  2
STANDARD
 70
     0
  3

  4

  5

  6

  7

 40
1.0
 41
0.18
 42
0.0625
 43
0.38
 44
0.18
 45
0.0
 46
0.0
 47
0.0
 48
0.0
140
0.18
141
0.09
142
0.0
143
25.4
144
1.0
145
0.0
146
1.0
147
0.09
 71
     0
 72
     0
 73
     1
 74
     1
 75
     0
 76
     0
 77
     0
 78
     0
170
     0
171
     2
172
     0
173
     0
174
     0
175
     0
176
     0
177
     0
178
     0
270
     2
271
     4
272
     4
273
     2
274
     2
340
F
275
     0
280
     0
281
     0
282
     0
283
     1
284
     0
285
     0
286
     0
287
     3
288
     0
  0
ENDTAB
  0
TABLE
  2
BLOCK_RECORD
  5
1
100
AcDbSymbolTable
 70
     0
  0
BLOCK_RECORD
  5
18
100
AcDbSymbolTableRecord
100
AcDbBlockTableRecord
  2
*MODEL_SPACE
  0
BLOCK_RECORD
  5
15
100
AcDbSymbolTableRecord
100
AcDbBlockTableRecord
  2
*PAPER_SPACE
  0
ENDTAB
  0
ENDSEC
  0
SECTION
  2
BLOCKS
  0
BLOCK
  5
19
100
AcDbEntity
  8
0
100
AcDbBlockBegin
  2
*MODEL_SPACE
 70
     0
 10
0.0
 20
0.0
 30
0.0
  3
*MODEL_SPACE
  1

  0
ENDBLK
  5
1A
100
AcDbEntity
  8
0
100
AcDbBlockEnd
  0
BLOCK
  5
16
100
AcDbEntity
 67
     1
  8
0
100
AcDbBlockBegin
  2
*PAPER_SPACE
 70
     0
 10
0.0
 20
0.0
 30
0.0
  3
*PAPER_SPACE
  1

  0
ENDBLK
  5
17
100
AcDbEntity
 67
     1
  8
0
100
AcDbBlockEnd
  0
ENDSEC
  0
SECTION
  2
ENTITIES
  0
LINE
  5
51
100
AcDbEntity
  8
AXES
  6
CONTINUOUS
100
AcDbLine
 10
-800.9390538220626
 20
-3993.444576414951
 30
0.0
 11
-3635.811108875773
 21
-3993.444576414951
 31
0.0
  0
ARC
  5
52
100
AcDbEntity
  8
ARMOUR
  6
CONTINUOUS
100
AcDbCircle
 10
-2213.45812730839
 20
-3993.444576414951
 30
0.0
 40
1159.999999999999
100
AcDbArc
 50
354.7114434284416
 51
187.874834254201
  0
LINE
  5
53
100
AcDbEntity
  8
AXES
  6
CONTINUOUS
100
AcDbLine
 10
-2213.45812730839
 20
-4184.172114063802
 30
0.0
 11
-2213.45812730839
 21
-1133.809280091236
 31
0.0
  0
LINE
  5
54
100
AcDbEntity
  8
ARMOUR
  6
CONTINUOUS
100
AcDbLine
 10
-3373.458127308389
 20
-2074.189141336093
 30
0.0
 11
-3373.458127308389
 21
-1259.189141336093
 31
0.0
  0
LINE
  5
55
100
AcDbEntity
  8
PISTOLPORT
  6
CONTINUOUS
100
AcDbLine
 10
-1240.017426082521
 20
-3269.612563553137
 30
0.0
 11
-1489.626121190071
 21
-3020.003868445586
 31
0.0
  0
LINE
  5
56
100
AcDbEntity
  8
PISTOLPORT
  6
CONTINUOUS
100
AcDbLine
 10
-1251.684678531205
 20
-3293.30065016378
 30
0.0
 11
-1513.314201057218
 21
-3031.671127637766
 31
0.0
  0
LINE
  5
57
100
AcDbEntity
  8
PISTOLPORT
  6
CONTINUOUS
100
AcDbLine
 10
-1240.017419339025
 20
-3269.612570296632
 30
0.0
 11
-1251.684678531205
 21
-3293.30065016378
 31
0.0
  0
LINE
  5
58
100
AcDbEntity
  8
PISTOLPORT
  6
CONTINUOUS
100
AcDbLine
 10
-1251.684678531205
 20
-3293.30065016378
 30
0.0
 11
-1276.541635492718
 21
-3318.157607125294
 31
0.0
  0
LINE
  5
59
100
AcDbEntity
  8
PISTOLPORT
  6
CONTINUOUS
100
AcDbLine
 10
-1489.626121190071
 20
-3020.003868445586
 30
0.0
 11
-1513.314201057218
 21
-3031.671127637766
 31
0.0
  0
LINE
  5
5A
100
AcDbEntity
  8
PISTOLPORT
  6
CONTINUOUS
100
AcDbLine
 10
-1513.314201057218
 20
-3031.671127637766
 30
0.0
 11
-1538.171158018733
 21
-3056.52808459928
 31
0.0
  0
LINE
  5
5B
100
AcDbEntity
  8
ARMOUR
  6
CONTINUOUS
100
AcDbLine
 10
-3373.458127308389
 20
-2074.189141336093
 30
0.0
 11
-1380.865691953365
 21
-2074.189141336093
 31
0.0
  0
LINE
  5
5C
100
AcDbEntity
  8
ARMOUR
  6
CONTINUOUS
100
AcDbLine
 10
-3373.458127308389
 20
-1259.189141336093
 30
0.0
 11
-2805.458127308405
 21
-1259.189141336092
 31
0.0
  0
LINE
  5
5D
100
AcDbEntity
  8
BIN
  6
CONTINUOUS
100
AcDbLine
 10
-3218.010266323583
 20
-1259.189141336093
 30
0.0
 11
-3908.458127308392
 21
-1259.189141336092
 31
0.0
  0
LINE
  5
5E
100
AcDbEntity
  8
BIN
  6
CONTINUOUS
100
AcDbLine
 10
-3218.010266323583
 20
-1914.189141336093
 30
0.0
 11
-3761.050182430578
 21
-1914.18914133609
 31
0.0
  0
LINE
  5
5F
100
AcDbEntity
  8
HATCH
  6
CONTINUOUS
 62
     7
100
AcDbLine
 10
-2853.389764282193
 20
-2998.545335285466
 30
0.0
 11
-3208.357368437588
 21
-3353.51293944086
 31
0.0
  0
LINE
  5
60
100
AcDbEntity
  8
HATCH
  6
CONTINUOUS
 62
     7
100
AcDbLine
 10
-3208.357368437561
 20
-3393.110919187277
 30
0.0
 11
-3208.35736843756
 21
-3353.512939440831
 31
0.0
  0
LINE
  5
61
100
AcDbEntity
  8
HATCH
  6
CONTINUOUS
 62
     7
100
AcDbLine
 10
-2853.389764282207
 20
-2998.545335285478
 30
0.0
 11
-2813.79178453576
 21
-2998.545335285478
 31
0.0
  0
LINE
  5
62
100
AcDbEntity
  8
BIN
  6
CONTINUOUS
100
AcDbLine
 10
-2803.45812730839
 20
-2994.695358643042
 30
0.0
 11
-2803.45812730839
 21
-2414.908862533254
 31
0.0
  0
ARC
  5
63
100
AcDbEntity
  8
BIN
  6
CONTINUOUS
100
AcDbCircle
 10
-2213.45812730839
 20
-3993.444576414951
 30
0.0
 40
1165.0
100
AcDbArc
 50
59.57315878680831
 51
120.4268412131917
  0
LINE
  5
64
100
AcDbEntity
  8
BIN
  6
CONTINUOUS
100
AcDbLine
 10
-3908.458127308394
 20
-1259.189141336092
 30
0.0
 11
-3908.45812730839
 21
-1509.189141336096
 31
0.0
  0
LINE
  5
65
100
AcDbEntity
  8
BIN
  6
CONTINUOUS
100
AcDbLine
 10
-3802.459385961133
 20
-1509.189141336097
 30
0.0
 11
-3908.45812730839
 21
-1509.189141336088
 31
0.0
  0
LWPOLYLINE
  5
66
100
AcDbEntity
  8
HATCH
  6
CONTINUOUS
 62
     7
100
AcDbPolyline
 90
       36
 70
     0
 43
0.0
 10
-2983.484366227003
 20
-1886.887615579235
 10
-2965.600278747354
 20
-1881.005549585782
 10
-2948.168044373215
 20
-1873.256421066166
 10
-2931.309646125652
 20
-1863.694454974407
 10
-2915.143051575791
 20
-1852.386561695379
 10
-2899.781387360256
 20
-1839.411868835699
 10
-2885.332147571267
 20
-1824.86116752394
 10
-2871.896441560833
 20
-1808.836277094703
 10
-2859.568286422459
 20
-1791.449332602211
 10
-2848.433949101376
 20
-1772.82200014908
 10
-2838.571342736811
 20
-1753.084625521065
 10
-2830.049481460525
 20
-1732.375322085239
 10
-2822.927997466603
 20
-1710.839004334083
 10
-2817.256723731895
 20
-1688.626373838348
 10
-2813.075345307016
 20
-1665.892864704495
 10
-2810.413121618008
 20
-1642.797555915975
 10
-2809.288681721904
 20
-1619.502058169268
 10
-2809.709893948864
 20
-1596.169382994121
 10
-2811.673810843111
 20
-1572.962802071392
 10
-2815.166689787907
 20
-1550.044704730453
 10
-2820.164089170278
 20
-1527.575461620908
 10
-2826.631039412536
 20
-1505.712302510131
 10
-2834.522287673848
 20
-1484.608216059306
 10
-2843.782614509463
 20
-1464.410879276828
 10
-2854.34722027183
 20
-1445.261624140299
 10
-2866.142178549709
 20
-1427.294448618225
 10
-2879.084953472302
 20
-1410.635079011842
 10
-2893.084977258555
 20
-1395.400090178392
 10
-2908.044283970217
 20
-1381.696089792135
 10
-2923.85819503387
 20
-1369.618972351265
 10
-2940.41605173504
 20
-1359.25324815088
 10
-2957.601989558629
 20
-1350.671451917529
 10
-2975.295748957267
 20
-1343.933635243464
 10
-2993.37351687412
 20
-1339.086946372312
 10
-3011.708793131566
 20
-1336.165300276649
 10
-3030.173275623187
 20
-1335.189141336094
  0
LWPOLYLINE
  5
67
100
AcDbEntity
  8
HATCH
  6
CONTINUOUS
 62
     7
100
AcDbPolyline
 90
       36
 70
     0
 43
0.0
 10
-2943.485185920992
 20
-1864.811068165268
 10
-2934.867052890334
 20
-1853.991151540417
 10
-2926.639596795309
 20
-1842.579185668213
 10
-2918.823130473099
 20
-1830.603345649441
 10
-2911.436952064693
 20
-1818.093198738617
 10
-2904.499297369547
 20
-1805.079631345144
 10
-2898.027294823066
 20
-1791.594772777588
 10
-2892.036923208047
 20
-1777.671915919353
 10
-2886.542972204545
 20
-1763.345435031591
 10
-2881.559005875482
 20
-1748.650700886298
 10
-2877.097329178237
 20
-1733.623993439107
 10
-2873.168957584811
 20
-1718.302412257393
 10
-2869.783589885654
 20
-1702.72378492483
 10
-2866.949584244221
 20
-1686.926573648554
 10
-2864.673937561434
 20
-1670.949780299474
 10
-2862.962268200984
 20
-1654.832850120226
 10
-2861.818802118083
 20
-1638.615574338477
 10
-2861.24636242599
 20
-1622.337991926011
 10
-2861.24636242599
 20
-1606.040290746174
 10
-2861.818802118083
 20
-1589.762708333708
 10
-2862.962268200984
 20
-1573.545432551959
 10
-2864.673937561434
 20
-1557.428502372713
 10
-2866.949584244221
 20
-1541.451709023632
 10
-2869.783589885654
 20
-1525.654497747354
 10
-2873.168957584811
 20
-1510.075870414793
 10
-2877.097329178237
 20
-1494.754289233077
 10
-2881.559005875482
 20
-1479.727581785886
 10
-2886.542972204545
 20
-1465.032847640594
 10
-2892.036923208047
 20
-1450.706366752832
 10
-2898.027294823066
 20
-1436.783509894597
 10
-2904.499297369547
 20
-1423.298651327042
 10
-2911.43695206469
 20
-1410.285083933567
 10
-2918.823130473099
 20
-1397.774937022744
 10
-2926.639596795309
 20
-1385.799097003971
 10
-2934.867052890334
 20
-1374.387131131768
 10
-2943.485185920995
 20
-1363.567214506917
  0
LWPOLYLINE
  5
68
100
AcDbEntity
  8
HATCH
  6
CONTINUOUS
 62
     7
100
AcDbPolyline
 90
       36
 70
     1
 43
0.0
 10
-3038.298185370468
 20
-1992.189141336091
 10
-3038.008136800375
 20
-1996.877642133098
 10
-3037.146804069122
 20
-2001.423685205884
 10
-3035.740358335896
 20
-2005.689141336091
 10
-3033.831533742601
 20
-2009.544406797628
 10
-3031.478328958598
 20
-2012.872341300303
 10
-3028.752244920467
 20
-2015.571827238271
 10
-3025.736112312242
 20
-2017.560842097311
 10
-3022.521574796984
 20
-2018.77895066742
 10
-3019.206304470466
 20
-2019.189141336091
 10
-3015.891034143944
 20
-2018.77895066742
 10
-3012.676496628689
 20
-2017.560842097311
 10
-3009.660364020464
 20
-2015.571827238271
 10
-3006.934279982332
 20
-2012.872341300303
 10
-3004.58107519833
 20
-2009.544406797628
 10
-3002.672250605035
 20
-2005.689141336091
 10
-3001.265804871809
 20
-2001.423685205884
 10
-3000.404472140556
 20
-1996.877642133098
 10
-3000.114423570463
 20
-1992.189141336091
 10
-3000.404472140556
 20
-1987.500640539083
 10
-3001.265804871809
 20
-1982.954597466297
 10
-3002.672250605035
 20
-1978.689141336091
 10
-3004.58107519833
 20
-1974.833875874553
 10
-3006.934279982332
 20
-1971.505941371878
 10
-3009.660364020464
 20
-1968.80645543391
 10
-3012.676496628689
 20
-1966.817440574871
 10
-3015.891034143944
 20
-1965.599332004761
 10
-3019.206304470466
 20
-1965.18914133609
 10
-3022.521574796984
 20
-1965.599332004761
 10
-3025.736112312242
 20
-1966.817440574871
 10
-3028.752244920467
 20
-1968.80645543391
 10
-3031.478328958598
 20
-1971.505941371878
 10
-3033.831533742601
 20
-1974.833875874553
 10
-3035.740358335896
 20
-1978.68914133609
 10
-3037.146804069122
 20
-1982.954597466297
 10
-3038.008136800375
 20
-1987.500640539083
  0
LINE
  5
69
100
AcDbEntity
  8
HATCH
  6
CONTINUOUS
 62
     7
100
AcDbLine
 10
-3006.633886049804
 20
-2002.004996744358
 30
0.0
 11
-3001.420792988798
 21
-2002.004996744358
 31
0.0
  0
LINE
  5
6A
100
AcDbEntity
  8
HATCH
  6
CONTINUOUS
 62
     7
100
AcDbLine
 10
-3006.633886049801
 20
-1982.375087591916
 30
0.0
 11
-3001.420295870681
 21
-1982.375087591916
 31
0.0
  0
LINE
  5
6B
100
AcDbEntity
  8
HATCH
  6
CONTINUOUS
 62
     7
100
AcDbLine
 10
-2993.750469156482
 20
-2023.385590730303
 30
0.0
 11
-2993.750469156482
 21
-1916.189141336093
 31
0.0
  0
LINE
  5
6C
100
AcDbEntity
  8
HATCH
  6
CONTINUOUS
 62
     7
100
AcDbLine
 10
-3018.499203656478
 20
-1916.189141336093
 30
0.0
 11
-2993.750469156482
 21
-1916.189141336093
 31
0.0
  0
LINE
  5
6D
100
AcDbEntity
  8
HATCH
  6
CONTINUOUS
 62
     7
100
AcDbLine
 10
-2986.679392535878
 20
-1906.189141336092
 30
0.0
 11
-2993.750469156482
 21
-1916.189141336093
 31
0.0
  0
LINE
  5
6E
100
AcDbEntity
  8
HATCH
  6
CONTINUOUS
 62
     7
100
AcDbLine
 10
-3011.428127035878
 20
-1906.189141336092
 30
0.0
 11
-2986.679392535878
 21
-1906.189141336092
 31
0.0
  0
LWPOLYLINE
  5
6F
100
AcDbEntity
  8
HATCH
  6
CONTINUOUS
 62
     7
100
AcDbPolyline
 90
       36
 70
     1
 43
0.0
 10
-2985.618742106477
 20
-1930.189141336092
 10
-2985.500574170514
 20
-1932.099271290428
 10
-2985.149660835559
 20
-1933.951362912674
 10
-2984.576664425726
 20
-1935.689141336092
 10
-2983.798995146978
 20
-1937.259805042644
 10
-2982.840282086827
 20
-1938.615630210401
 10
-2981.729655256478
 20
-1939.715420777721
 10
-2980.500860490165
 20
-1940.525760164737
 10
-2979.191234095063
 20
-1941.022026619227
 10
-2977.840568406481
 20
-1941.189141336092
 10
-2976.4899027179
 20
-1941.022026619227
 10
-2975.180276322797
 20
-1940.525760164737
 10
-2973.951481556482
 20
-1939.715420777721
 10
-2972.840854726135
 20
-1938.615630210401
 10
-2971.882141665984
 20
-1937.259805042644
 10
-2971.104472387237
 20
-1935.689141336092
 10
-2970.531475977403
 20
-1933.951362912674
 10
-2970.180562642449
 20
-1932.099271290428
 10
-2970.062394706485
 20
-1930.189141336092
 10
-2970.180562642449
 20
-1928.279011381755
 10
-2970.531475977403
 20
-1926.426919759509
 10
-2971.104472387237
 20
-1924.689141336092
 10
-2971.882141665984
 20
-1923.118477629539
 10
-2972.840854726135
 20
-1921.762652461783
 10
-2973.951481556482
 20
-1920.662861894462
 10
-2975.180276322797
 20
-1919.852522507446
 10
-2976.4899027179
 20
-1919.356256052957
 10
-2977.840568406481
 20
-1919.189141336091
 10
-2979.191234095063
 20
-1919.356256052957
 10
-2980.500860490165
 20
-1919.852522507446
 10
-2981.729655256478
 20
-1920.662861894462
 10
-2982.840282086827
 20
-1921.762652461783
 10
-2983.798995146978
 20
-1923.118477629539
 10
-2984.576664425726
 20
-1924.689141336092
 10
-2985.149660835559
 20
-1926.426919759509
 10
-2985.500574170514
 20
-1928.279011381755
  0
LINE
  5
70
100
AcDbEntity
  8
HATCH
  6
CONTINUOUS
 62
     7
100
AcDbLine
 10
-2961.930667656478
 20
-1916.189141336093
 30
0.0
 11
-2969.001734656483
 21
-1906.189141336092
 31
0.0
  0
LINE
  5
71
100
AcDbEntity
  8
HATCH
  6
CONTINUOUS
 62
     7
100
AcDbLine
 10
-2969.001734656483
 20
-1906.189141336092
 30
0.0
 11
-2986.679392535884
 21
-1906.189141336092
 31
0.0
  0
LINE
  5
72
100
AcDbEntity
  8
HATCH
  6
CONTINUOUS
 62
     7
100
AcDbLine
 10
-2972.537268156479
 20
-1955.189141336093
 30
0.0
 11
-2961.930667656481
 21
-1940.189141336094
 31
0.0
  0
LINE
  5
73
100
AcDbEntity
  8
HATCH
  6
CONTINUOUS
 62
     7
100
AcDbLine
 10
-2961.930667656481
 20
-1940.189141336094
 30
0.0
 11
-2961.930667656478
 21
-1916.189141336093
 31
0.0
  0
LINE
  5
74
100
AcDbEntity
  8
HATCH
  6
CONTINUOUS
 62
     7
100
AcDbLine
 10
-2972.537268156479
 20
-2023.385590730303
 30
0.0
 11
-2993.750469156482
 21
-2023.385590730303
 31
0.0
  0
LINE
  5
75
100
AcDbEntity
  8
HATCH
  6
CONTINUOUS
 62
     7
100
AcDbLine
 10
-2972.537268156479
 20
-2023.385590730303
 30
0.0
 11
-2972.537268156479
 21
-1955.189141336093
 31
0.0
  0
LINE
  5
76
100
AcDbEntity
  8
HATCH
  6
CONTINUOUS
 62
     7
100
AcDbLine
 10
-2956.980920756476
 20
-2023.385590730303
 30
0.0
 11
-3005.417729706477
 21
-2066.189141336092
 31
0.0
  0
LINE
  5
77
100
AcDbEntity
  8
HATCH
  6
CONTINUOUS
 62
     7
100
AcDbLine
 10
-2971.123054756479
 20
-2023.385590730303
 30
0.0
 11
-3019.559863706481
 21
-2066.189141336092
 31
0.0
  0
LWPOLYLINE
  5
78
100
AcDbEntity
  8
HATCH
  6
CONTINUOUS
 62
     7
100
AcDbPolyline
 90
        4
 70
     0
 43
0.0
 10
-2956.980920756476
 20
-2023.3855907303
 10
-2956.980920756476
 20
-1963.189141336092
 10
-2971.123054756479
 20
-1963.189141336092
 10
-2971.123054756479
 20
-2023.385590730303
  0
LINE
  5
79
100
AcDbEntity
  8
HATCH
  6
CONTINUOUS
 62
     7
100
AcDbLine
 10
-2956.980920756476
 20
-2023.385590730303
 30
0.0
 11
-2972.537268156479
 21
-2023.385590730303
 31
0.0
  0
LINE
  5
7A
100
AcDbEntity
  8
HATCH
  6
CONTINUOUS
 62
     7
100
AcDbLine
 10
-2991.938744998225
 20
-1733.189141336091
 30
0.0
 11
-3007.644111798721
 21
-1705.189141336092
 31
0.0
  0
LINE
  5
7B
100
AcDbEntity
  8
HATCH
  6
CONTINUOUS
 62
     7
100
AcDbLine
 10
-2998.353470469791
 20
-1705.189141336092
 30
0.0
 11
-3071.283722105524
 21
-1705.189141336092
 31
0.0
  0
LINE
  5
7C
100
AcDbEntity
  8
HATCH
  6
CONTINUOUS
 62
     7
100
AcDbLine
 10
-2978.554480596567
 20
-1733.189141336092
 30
0.0
 11
-2998.353470469791
 21
-1705.189141336092
 31
0.0
  0
LINE
  5
7D
100
AcDbEntity
  8
HATCH
  6
CONTINUOUS
 62
     7
100
AcDbLine
 10
-2978.554480596567
 20
-1733.18914133609
 30
0.0
 11
-2991.938744998225
 21
-1733.189141336092
 31
0.0
  0
LINE
  5
7E
100
AcDbEntity
  8
HATCH
  6
CONTINUOUS
 62
     7
100
AcDbLine
 10
-2978.554480596567
 20
-1733.18914133609
 30
0.0
 11
-2978.554480596567
 21
-1883.684359622379
 31
0.0
  0
LWPOLYLINE
  5
7F
100
AcDbEntity
  8
HATCH
  6
CONTINUOUS
 62
     7
100
AcDbPolyline
 90
       36
 70
     0
 43
0.0
 10
-2978.555564026418
 20
-1883.684359622378
 10
-2978.856912120586
 20
-1883.694486559751
 10
-2979.157651282948
 20
-1883.724702457692
 10
-2979.457175989189
 20
-1883.774946477895
 10
-2979.754883160245
 20
-1883.845117456363
 10
-2980.050173376572
 20
-1883.935074107095
 10
-2980.342452085059
 20
-1884.044635306558
 10
-2980.631130796117
 20
-1884.173580458373
 10
-2980.915628268592
 20
-1884.321649937476
 10
-2981.195371680054
 20
-1884.488545612857
 10
-2981.469797780156
 20
-1884.673931447836
 10
-2981.73835402471
 20
-1884.877434176658
 10
-2982.000499688211
 20
-1885.098644056044
 10
-2982.255706952557
 20
-1885.337115690191
 10
-2982.503461969792
 20
-1885.592368927557
 10
-2982.743265896711
 20
-1885.863889827619
 10
-2982.974635899266
 20
-1886.151131695674
 10
-2983.197106124717
 20
-1886.453516183585
 10
-2983.410228639609
 20
-1886.770434454247
 10
-2983.613574331675
 20
-1887.101248407464
 10
-2983.806733773823
 20
-1887.445291964729
 10
-2983.989318048496
 20
-1887.801872410341
 10
-2984.160959530756
 20
-1888.17027178616
 10
-2984.321312628458
 20
-1888.549748337178
 10
-2984.470054478102
 20
-1888.939538005009
 10
-2984.606885594887
 20
-1889.338855966289
 10
-2984.731530475726
 20
-1889.746898212876
 10
-2984.843738153951
 20
-1890.162843170686
 10
-2984.943282704619
 20
-1890.585853353893
 10
-2985.029963699409
 20
-1891.015077051169
 10
-2985.103606610167
 20
-1891.449650040565
 10
-2985.164063160321
 20
-1891.88869732958
 10
-2985.211211623417
 20
-1892.331334916918
 10
-2985.244957068221
 20
-1892.776671572388
 10
-2985.265231549844
 20
-1893.223810631346
 10
-2985.271994246563
 20
-1893.671851800096
  0
LINE
  5
80
100
AcDbEntity
  8
HATCH
  6
CONTINUOUS
 62
     7
100
AcDbLine
 10
-3030.667037100357
 20
-1865.366919166028
 30
0.0
 11
-2991.282401196565
 21
-1733.189141336092
 31
0.0
  0
LINE
  5
81
100
AcDbEntity
  8
HATCH
  6
CONTINUOUS
 62
     7
100
AcDbLine
 10
-2991.913502171545
 20
-1866.340914787068
 30
0.0
 11
-2991.913502171545
 21
-1733.189141336092
 31
0.0
  0
ARC
  5
82
100
AcDbEntity
  8
HATCH
  6
CONTINUOUS
 62
     7
100
AcDbCircle
 10
-3016.901143468379
 20
-1867.926075242665
 30
0.0
 40
25.0378703417306
100
AcDbArc
 50
278.5963398424844
 51
3.6298529200005
  0
LINE
  5
83
100
AcDbEntity
  8
HATCH
  6
CONTINUOUS
 62
     7
100
AcDbLine
 10
-2985.27199424657
 20
-1893.428046575183
 30
0.0
 11
-2985.271994246572
 21
-1906.189141336091
 31
0.0
  0
LINE
  5
84
100
AcDbEntity
  8
HATCH
  6
CONTINUOUS
 62
     7
100
AcDbLine
 10
-2971.123054756479
 20
-1963.189141336092
 30
0.0
 11
-2972.537268156479
 21
-1963.189141336092
 31
0.0
  0
LWPOLYLINE
  5
85
100
AcDbEntity
  8
HATCH
  6
CONTINUOUS
 62
     7
100
AcDbPolyline
 90
       36
 70
     0
 43
0.0
 10
-2978.554480596567
 20
-1883.469664211401
 10
-2977.52043975378
 20
-1883.06896160868
 10
-2976.487954018978
 20
-1882.66031760741
 10
-2975.457053886747
 20
-1882.243744276944
 10
-2974.427769804852
 20
-1881.819253920824
 10
-2973.400132173325
 20
-1881.386859076425
 10
-2972.374171343569
 20
-1880.946572514584
 10
-2971.349917617464
 20
-1880.498407239218
 10
-2970.327401246472
 20
-1880.042376486941
 10
-2969.306652430733
 20
-1879.578493726681
 10
-2968.287701318196
 20
-1879.10677265927
 10
-2967.270578003704
 20
-1878.627227217048
 10
-2966.255312528119
 20
-1878.13987156345
 10
-2965.241934877433
 20
-1877.644720092584
 10
-2964.230474981877
 20
-1877.141787428808
 10
-2963.220962715047
 20
-1876.631088426303
 10
-2962.213427893011
 20
-1876.112638168626
 10
-2961.20790027343
 20
-1875.586451968268
 10
-2960.204409554691
 20
-1875.052545366204
 10
-2959.20298537501
 20
-1874.510934131431
 10
-2958.20365731158
 20
-1873.961634260503
 10
-2957.206454879673
 20
-1873.40466197706
 10
-2956.211407531789
 20
-1872.840033731347
 10
-2955.218544656771
 20
-1872.267766199727
 10
-2954.22789557895
 20
-1871.687876284193
 10
-2953.239489557262
 20
-1871.100381111865
 10
-2952.253355784404
 20
-1870.505298034485
 10
-2951.269523385958
 20
-1869.902644627906
 10
-2950.288021419536
 20
-1869.292438691568
 10
-2949.308878873917
 20
-1868.674698247981
 10
-2948.332124668199
 20
-1868.049441542182
 10
-2947.357787650937
 20
-1867.416687041207
 10
-2946.385896599293
 20
-1866.776453433538
 10
-2945.41648021819
 20
-1866.128759628552
 10
-2944.449567139456
 20
-1865.473624755966
 10
-2943.485185920992
 20
-1864.811068165268
  0
ARC
  5
86
100
AcDbEntity
  8
HATCH
  6
CONTINUOUS
 62
     7
100
AcDbCircle
 10
-3100.182662731078
 20
-1614.189141336091
 30
0.0
 40
295.5764697099811
100
AcDbArc
 50
302.0150442114689
 51
334.0048462489392
  0
LINE
  5
87
100
AcDbEntity
  8
HATCH
  6
CONTINUOUS
 62
     7
100
AcDbLine
 10
-2972.537268156479
 20
-2023.385590730303
 30
0.0
 11
-3020.974077106481
 21
-2066.189141336092
 31
0.0
  0
LINE
  5
88
100
AcDbEntity
  8
HATCH
  6
CONTINUOUS
 62
     7
100
AcDbLine
 10
-2993.750469156482
 20
-2023.385590730303
 30
0.0
 11
-3042.18727810648
 21
-2066.189141336092
 31
0.0
  0
LWPOLYLINE
  5
89
100
AcDbEntity
  8
HATCH
  6
CONTINUOUS
 62
     7
100
AcDbPolyline
 90
       36
 70
     0
 43
0.0
 10
-2943.485185920995
 20
-1363.567214506915
 10
-2948.121000102381
 20
-1360.465180773209
 10
-2952.812264380651
 20
-1357.534611122685
 10
-2957.555808446915
 20
-1354.777486004636
 10
-2962.348426662126
 20
-1352.195668656297
 10
-2967.18688022343
 20
-1349.790903843686
 10
-2972.067899352904
 20
-1347.564816682512
 10
-2976.988185507249
 20
-1345.518911539936
 10
-2981.944413606912
 20
-1343.654571017934
 10
-2986.933234283132
 20
-1341.973055018952
 10
-2991.951276141412
 20
-1340.475499894476
 10
-2996.99514803988
 20
-1339.162917677089
 10
-3002.061441380988
 20
-1338.036195396568
 10
-3007.146732414999
 20
-1337.096094480415
 10
-3012.247584553728
 20
-1336.34325023931
 10
-3017.360550692958
 20
-1335.778171437771
 10
-3022.482175541943
 20
-1335.401239950325
 10
-3027.608997958481
 20
-1335.212710503457
 10
-3032.737553287896
 20
-1335.212710503457
 10
-3037.864375704431
 20
-1335.401239950325
 10
-3042.986000553419
 20
-1335.778171437771
 10
-3048.098966692646
 20
-1336.343250239311
 10
-3053.199818831378
 20
-1337.096094480415
 10
-3058.285109865389
 20
-1338.036195396568
 10
-3063.351403206497
 20
-1339.162917677091
 10
-3068.395275104965
 20
-1340.475499894476
 10
-3073.413316963245
 20
-1341.973055018953
 10
-3078.402137639463
 20
-1343.654571017935
 10
-3083.358365739124
 20
-1345.518911539936
 10
-3088.278651893471
 20
-1347.564816682512
 10
-3093.159671022947
 20
-1349.790903843686
 10
-3097.998124584249
 20
-1352.195668656298
 10
-3102.790742799462
 20
-1354.777486004637
 10
-3107.534286865723
 20
-1357.534611122687
 10
-3112.225551143996
 20
-1360.46518077321
 10
-3116.861365325382
 20
-1363.567214506917
  0
ARC
  5
8A
100
AcDbEntity
  8
HATCH
  6
CONTINUOUS
 62
     7
100
AcDbCircle
 10
-3100.182662731078
 20
-1614.189141336091
 30
0.0
 40
295.5764697099811
100
AcDbArc
 50
25.99515375097509
 51
57.98495578853093
  0
LWPOLYLINE
  5
8B
100
AcDbEntity
  8
HATCH
  6
CONTINUOUS
 62
     7
100
AcDbPolyline
 90
       36
 70
     0
 43
0.0
 10
-3116.861365325382
 20
-1363.567214506917
 10
-3125.479498356089
 20
-1374.387131131834
 10
-3133.706954451159
 20
-1385.799097004111
 10
-3141.523420773413
 20
-1397.774937022965
 10
-3148.909599181854
 20
-1410.285083933875
 10
-3155.84725387703
 20
-1423.298651327441
 10
-3162.319256423533
 20
-1436.783509895092
 10
-3168.309628038566
 20
-1450.706366753428
 10
-3173.803579042083
 20
-1465.032847641293
 10
-3178.787545371149
 20
-1479.727581786691
 10
-3183.249222068392
 20
-1494.754289233991
 10
-3187.177593661806
 20
-1510.075870415815
 10
-3190.562961360946
 20
-1525.654497748488
 10
-3193.396967002353
 20
-1541.451709024875
 10
-3195.672613685108
 20
-1557.428502374065
 10
-3197.384283045519
 20
-1573.545432553419
 10
-3198.527749128374
 20
-1589.762708335273
 10
-3199.100188820413
 20
-1606.040290747841
 10
-3199.100188820352
 20
-1622.337991927777
 10
-3198.527749128192
 20
-1638.615574340336
 10
-3197.384283045219
 20
-1654.832850122173
 10
-3195.672613684686
 20
-1670.949780301502
 10
-3193.396967001815
 20
-1686.926573650658
 10
-3190.56296136029
 20
-1702.723784927003
 10
-3187.177593661035
 20
-1718.302412259625
 10
-3183.249222067508
 20
-1733.623993441391
 10
-3178.787545370153
 20
-1748.650700888624
 10
-3173.803579040977
 20
-1763.34543503395
 10
-3168.309628037357
 20
-1777.671915921733
 10
-3162.31925642222
 20
-1791.59477277998
 10
-3155.847253875615
 20
-1805.079631347536
 10
-3148.909599180347
 20
-1818.093198740999
 10
-3141.523420771811
 20
-1830.6033456518
 10
-3133.70695444947
 20
-1842.579185670537
 10
-3125.479498354315
 20
-1853.991151542692
 10
-3116.861365323525
 20
-1864.811068167482
  0
LWPOLYLINE
  5
8C
100
AcDbEntity
  8
HATCH
  6
CONTINUOUS
 62
     7
100
AcDbPolyline
 90
        6
 70
     1
 43
0.0
 10
-3121.185183221858
 20
-2011.819951320585
 10
-3109.16436932186
 20
-2002.004996744362
 10
-3109.164369321857
 20
-1982.375087591915
 10
-3121.185183221855
 20
-1972.560133015692
 10
-3133.205997121856
 20
-1982.375087591915
 10
-3133.205997121859
 20
-2002.004996744362
  0
LWPOLYLINE
  5
8D
100
AcDbEntity
  8
HATCH
  6
CONTINUOUS
 62
     7
100
AcDbPolyline
 90
        6
 70
     1
 43
0.0
 10
-3018.654699949802
 20
-2011.819951320585
 10
-3006.633886049804
 20
-2002.004996744362
 10
-3006.633886049801
 20
-1982.375087591915
 10
-3018.654699949799
 20
-1972.560133015692
 10
-3030.675513849801
 20
-1982.375087591915
 10
-3030.675513849804
 20
-2002.004996744362
  0
LWPOLYLINE
  5
8E
100
AcDbEntity
  8
HATCH
  6
CONTINUOUS
 62
     7
100
AcDbPolyline
 90
       36
 70
     1
 43
0.0
 10
-3140.828668642524
 20
-1992.189141336091
 10
-3140.538620072431
 20
-1996.877642133098
 10
-3139.677287341178
 20
-2001.423685205884
 10
-3138.270841607951
 20
-2005.689141336091
 10
-3136.362017014656
 20
-2009.544406797628
 10
-3134.008812230654
 20
-2012.872341300303
 10
-3131.282728192523
 20
-2015.571827238271
 10
-3128.266595584298
 20
-2017.560842097311
 10
-3125.052058069039
 20
-2018.77895066742
 10
-3121.736787742521
 20
-2019.189141336091
 10
-3118.421517416
 20
-2018.77895066742
 10
-3115.206979900745
 20
-2017.560842097311
 10
-3112.19084729252
 20
-2015.571827238271
 10
-3109.464763254388
 20
-2012.872341300303
 10
-3107.111558470386
 20
-2009.544406797628
 10
-3105.20273387709
 20
-2005.689141336091
 10
-3103.796288143865
 20
-2001.423685205884
 10
-3102.934955412611
 20
-1996.877642133098
 10
-3102.644906842519
 20
-1992.189141336091
 10
-3102.934955412611
 20
-1987.500640539083
 10
-3103.796288143865
 20
-1982.954597466297
 10
-3105.20273387709
 20
-1978.689141336091
 10
-3107.111558470386
 20
-1974.833875874553
 10
-3109.464763254388
 20
-1971.505941371878
 10
-3112.19084729252
 20
-1968.80645543391
 10
-3115.206979900745
 20
-1966.817440574871
 10
-3118.421517416
 20
-1965.599332004761
 10
-3121.736787742521
 20
-1965.18914133609
 10
-3125.052058069039
 20
-1965.599332004761
 10
-3128.266595584298
 20
-1966.817440574871
 10
-3131.282728192523
 20
-1968.80645543391
 10
-3134.008812230654
 20
-1971.505941371878
 10
-3136.362017014656
 20
-1974.833875874553
 10
-3138.270841607951
 20
-1978.68914133609
 10
-3139.677287341178
 20
-1982.954597466297
 10
-3140.538620072431
 20
-1987.500640539083
  0
LINE
  5
8F
100
AcDbEntity
  8
HATCH
  6
CONTINUOUS
 62
     7
100
AcDbLine
 10
-3018.654699949805
 20
-2011.819951320583
 30
0.0
 11
-3006.098459101284
 21
-2011.819951320583
 31
0.0
  0
LINE
  5
90
100
AcDbEntity
  8
HATCH
  6
CONTINUOUS
 62
     7
100
AcDbLine
 10
-3018.654699949802
 20
-1972.560133015692
 30
0.0
 11
-3006.097110112432
 21
-1972.560133015692
 31
0.0
  0
LINE
  5
91
100
AcDbEntity
  8
HATCH
  6
CONTINUOUS
 62
     7
100
AcDbLine
 10
-3121.185183221861
 20
-2011.819951320583
 30
0.0
 11
-3108.628942373341
 21
-2011.819951320583
 31
0.0
  0
LINE
  5
92
100
AcDbEntity
  8
HATCH
  6
CONTINUOUS
 62
     7
100
AcDbLine
 10
-3109.16436932186
 20
-2002.004996744358
 30
0.0
 11
-3103.951276260854
 21
-2002.004996744358
 31
0.0
  0
LINE
  5
93
100
AcDbEntity
  8
HATCH
  6
CONTINUOUS
 62
     7
100
AcDbLine
 10
-3109.164369321857
 20
-1982.375087591916
 30
0.0
 11
-3103.950779142734
 21
-1982.375087591916
 31
0.0
  0
LINE
  5
94
100
AcDbEntity
  8
HATCH
  6
CONTINUOUS
 62
     7
100
AcDbLine
 10
-3121.185183221858
 20
-1972.560133015692
 30
0.0
 11
-3108.627593384487
 21
-1972.560133015692
 31
0.0
  0
LWPOLYLINE
  5
95
100
AcDbEntity
  8
HATCH
  6
CONTINUOUS
 62
     7
100
AcDbPolyline
 90
       36
 70
     0
 43
0.0
 10
-3051.379665206479
 20
-2030.189141336091
 10
-3051.45652350606
 20
-2027.768879995699
 10
-3051.686479586968
 20
-2025.368105176528
 10
-3052.067681978051
 20
-2023.006146505791
 10
-3052.597061461796
 20
-2020.702021085895
 10
-3053.270355785879
 20
-2018.474280379917
 10
-3054.082143980284
 20
-2016.340860846133
 10
-3055.025890003798
 20
-2014.318939524195
 10
-3056.09399536835
 20
-2012.424795735719
 10
-3057.277860317583
 20
-2010.673680012752
 10
-3058.567953067029
 20
-2009.079691309455
 10
-3059.953886548429
 20
-2007.655663485617
 10
-3061.424502040303
 20
-2006.41306197596
 10
-3062.967959011426
 20
-2005.361891477203
 10
-3064.571830453799
 20
-2004.510615396122
 10
-3066.22320293763
 20
-2003.866087707183
 10
-3067.908780582674
 20
-2003.433497768357
 10
-3069.614992108831
 20
-2003.216328539476
 10
-3071.328100104132
 20
-2003.216328539476
 10
-3073.03431163029
 20
-2003.433497768357
 10
-3074.719889275334
 20
-2003.866087707183
 10
-3076.371261759164
 20
-2004.510615396122
 10
-3077.975133201538
 20
-2005.361891477203
 10
-3079.518590172661
 20
-2006.41306197596
 10
-3080.989205664535
 20
-2007.655663485617
 10
-3082.375139145934
 20
-2009.079691309455
 10
-3083.66523189538
 20
-2010.673680012752
 10
-3084.849096844614
 20
-2012.424795735719
 10
-3085.917202209166
 20
-2014.318939524195
 10
-3086.86094823268
 20
-2016.340860846133
 10
-3087.672736427084
 20
-2018.474280379917
 10
-3088.346030751167
 20
-2020.702021085895
 10
-3088.875410234913
 20
-2023.006146505791
 10
-3089.256612625995
 20
-2025.368105176528
 10
-3089.486568706904
 20
-2027.768879995699
 10
-3089.563427006485
 20
-2030.189141336091
  0
LINE
  5
96
100
AcDbEntity
  8
HATCH
  6
CONTINUOUS
 62
     7
100
AcDbLine
 10
-3122.443888556483
 20
-1959.189141336091
 30
0.0
 11
-3070.471546106479
 21
-1959.189141336091
 31
0.0
  0
LINE
  5
97
100
AcDbEntity
  8
HATCH
  6
CONTINUOUS
 62
     7
100
AcDbLine
 10
-3018.499203656481
 20
-1959.189141336091
 30
0.0
 11
-3070.471546106484
 21
-1959.189141336091
 31
0.0
  0
LINE
  5
98
100
AcDbEntity
  8
HATCH
  6
CONTINUOUS
 62
     7
100
AcDbLine
 10
-3018.499203656478
 20
-1916.189141336093
 30
0.0
 11
-3018.499203656481
 21
-1959.189141336091
 31
0.0
  0
LINE
  5
99
100
AcDbEntity
  8
HATCH
  6
CONTINUOUS
 62
     7
100
AcDbLine
 10
-3147.192623056482
 20
-2023.385590730303
 30
0.0
 11
-3147.192623056482
 21
-1916.189141336093
 31
0.0
  0
LINE
  5
9A
100
AcDbEntity
  8
HATCH
  6
CONTINUOUS
 62
     7
100
AcDbLine
 10
-3122.443888556483
 20
-1959.189141336091
 30
0.0
 11
-3122.443888556483
 21
-1916.189141336093
 31
0.0
  0
LINE
  5
9B
100
AcDbEntity
  8
HATCH
  6
CONTINUOUS
 62
     7
100
AcDbLine
 10
-3147.192623056482
 20
-1916.189141336093
 30
0.0
 11
-3122.443888556483
 21
-1916.189141336093
 31
0.0
  0
LINE
  5
9C
100
AcDbEntity
  8
HATCH
  6
CONTINUOUS
 62
     7
100
AcDbLine
 10
-3011.428127035878
 20
-1906.189141336092
 30
0.0
 11
-3018.499203656478
 21
-1916.189141336093
 31
0.0
  0
LINE
  5
9D
100
AcDbEntity
  8
HATCH
  6
CONTINUOUS
 62
     7
100
AcDbLine
 10
-3147.192623056482
 20
-1916.189141336093
 30
0.0
 11
-3140.121546435882
 21
-1906.189141336092
 31
0.0
  0
LINE
  5
9E
100
AcDbEntity
  8
HATCH
  6
CONTINUOUS
 62
     7
100
AcDbLine
 10
-3005.417729706477
 20
-2066.189141336092
 30
0.0
 11
-3019.559863706481
 21
-2066.189141336092
 31
0.0
  0
LINE
  5
9F
100
AcDbEntity
  8
HATCH
  6
CONTINUOUS
 62
     7
100
AcDbLine
 10
-3019.213120514796
 20
-1938.189141336092
 30
0.0
 11
-3121.729971698182
 21
-1938.189141336092
 31
0.0
  0
LINE
  5
A0
100
AcDbEntity
  8
HATCH
  6
CONTINUOUS
 62
     7
100
AcDbLine
 10
-3071.283722105524
 20
-1705.189141336092
 30
0.0
 11
-3092.158871118724
 21
-1733.189141336091
 31
0.0
  0
LINE
  5
A1
100
AcDbEntity
  8
HATCH
  6
CONTINUOUS
 62
     7
100
AcDbLine
 10
-3111.478650062037
 20
-1954.189141336091
 30
0.0
 11
-3121.729971698182
 21
-1938.189141336092
 31
0.0
  0
LINE
  5
A2
100
AcDbEntity
  8
HATCH
  6
CONTINUOUS
 62
     7
100
AcDbLine
 10
-3018.499203656481
 20
-1954.18914133609
 30
0.0
 11
-3111.478650062037
 21
-1954.189141336091
 31
0.0
  0
ARC
  5
A3
100
AcDbEntity
  8
HATCH
  6
CONTINUOUS
 62
     7
100
AcDbCircle
 10
-3004.006392391706
 20
-1867.547429029204
 30
0.0
 40
26.74966540995113
100
AcDbArc
 50
175.3243233048985
 51
249.9923373583402
  0
ARC
  5
A4
100
AcDbEntity
  8
HATCH
  6
CONTINUOUS
 62
     7
100
AcDbCircle
 10
-3124.224385156644
 20
-1867.547429029204
 30
0.0
 40
26.74966540995113
100
AcDbArc
 50
290.0076626416597
 51
4.675676695101405
  0
LINE
  5
A5
100
AcDbEntity
  8
HATCH
  6
CONTINUOUS
 62
     7
100
AcDbLine
 10
-3097.563740447993
 20
-1865.366919166028
 30
0.0
 11
-3092.158871118724
 21
-1733.189141336091
 31
0.0
  0
LINE
  5
A6
100
AcDbEntity
  8
HATCH
  6
CONTINUOUS
 62
     7
100
AcDbLine
 10
-3115.163788296673
 20
-1892.669442341702
 30
0.0
 11
-3121.729971698182
 21
-1938.189141336092
 31
0.0
  0
LINE
  5
A7
100
AcDbEntity
  8
HATCH
  6
CONTINUOUS
 62
     7
100
AcDbLine
 10
-3117.56022518461
 20
-1909.282606965301
 30
0.0
 11
-3122.443888556483
 21
-1916.189141336093
 31
0.0
  0
LINE
  5
A8
100
AcDbEntity
  8
HATCH
  6
CONTINUOUS
 62
     7
100
AcDbLine
 10
-3117.113995022365
 20
-1906.189141336092
 30
0.0
 11
-3140.121546435882
 21
-1906.189141336092
 31
0.0
  0
LINE
  5
A9
100
AcDbEntity
  8
HATCH
  6
CONTINUOUS
 62
     7
100
AcDbLine
 10
-3013.15867841582
 20
-1892.682668436797
 30
0.0
 11
-3015.773204384936
 21
-1912.33400099778
 31
0.0
  0
LINE
  5
AA
100
AcDbEntity
  8
HATCH
  6
CONTINUOUS
 62
     7
100
AcDbLine
 10
-3018.499203656478
 20
-1932.823190578922
 30
0.0
 11
-3019.213120514796
 21
-1938.189141336092
 31
0.0
  0
LWPOLYLINE
  5
AB
100
AcDbEntity
  8
HATCH
  6
CONTINUOUS
 62
     7
100
AcDbPolyline
 90
       36
 70
     0
 43
0.0
 10
-3124.670276342445
 20
-2008.974384376696
 10
-3124.471664979653
 20
-2009.322319115025
 10
-3124.269006428246
 20
-2009.665554531812
 10
-3124.062356273816
 20
-2010.003996483776
 10
-3123.851771196767
 20
-2010.337552142394
 10
-3123.637308956785
 20
-2010.666130019369
 10
-3123.419028377
 20
-2010.989639991716
 10
-3123.196989327829
 20
-2011.307993326488
 10
-3122.971252710583
 20
-2011.621102705108
 10
-3122.74188044074
 20
-2011.928882247323
 10
-3122.508935430977
 20
-2012.231247534759
 10
-3122.272481573904
 20
-2012.52811563407
 10
-3122.032583724552
 20
-2012.819405119695
 10
-3121.78930768257
 20
-2013.105036096183
 10
-3121.542720174187
 20
-2013.384930220111
 10
-3121.292888833912
 20
-2013.659010721569
 10
-3121.039882185966
 20
-2013.927202425223
 10
-3120.783769625514
 20
-2014.189431770926
 10
-3120.52462139961
 20
-2014.4456268339
 10
-3120.262508587934
 20
-2014.695717344461
 10
-3119.997503083304
 20
-2014.939634707296
 10
-3119.729677571944
 20
-2015.177312020271
 10
-3119.459105513567
 20
-2015.408684092789
 10
-3119.1858611212
 20
-2015.633687463664
 10
-3118.910019340851
 20
-2015.852260418531
 10
-3118.631655830947
 20
-2016.064343006773
 10
-3118.350846941573
 20
-2016.269877057962
 10
-3118.067669693544
 20
-2016.468806197816
 10
-3117.782201757266
 20
-2016.66107586366
 10
-3117.494521431448
 20
-2016.846633319395
 10
-3117.204707621609
 20
-2017.02542766996
 10
-3116.91283981845
 20
-2017.197409875288
 10
-3116.618998076041
 20
-2017.362532763763
 10
-3116.323262989875
 20
-2017.520751045158
 10
-3116.025715674746
 20
-2017.672021323052
 10
-3115.726437742517
 20
-2017.816302106737
  0
LWPOLYLINE
  5
AC
100
AcDbEntity
  8
HATCH
  6
CONTINUOUS
 62
     7
100
AcDbPolyline
 90
       36
 70
     0
 43
0.0
 10
-3115.72643774252
 20
-1966.561980565446
 10
-3116.025796614969
 20
-1966.70630143145
 10
-3116.323423909232
 20
-1966.857615572525
 10
-3116.619237947223
 20
-1967.015881463415
 10
-3116.913157548469
 20
-1967.181055671093
 10
-3117.205102052392
 20
-1967.353092866674
 10
-3117.494991340443
 20
-1967.531945837862
 10
-3117.782745858085
 20
-1967.717565501899
 10
-3118.068286636626
 20
-1967.909900919041
 10
-3118.351535314891
 20
-1968.108899306534
 10
-3118.632414160736
 20
-1968.314506053097
 10
-3118.910846092364
 20
-1968.526664733918
 10
-3119.186754699488
 20
-1968.745317126128
 10
-3119.460064264299
 20
-1968.970403224785
 10
-3119.730699782251
 20
-1969.201861259341
 10
-3119.998586982628
 20
-1969.439627710592
 10
-3120.263652348944
 20
-1969.68363732811
 10
-3120.525823139114
 20
-1969.933823148151
 10
-3120.785027405401
 20
-1970.190116512031
 10
-3121.041194014192
 20
-1970.452447084968
 10
-3121.29425266548
 20
-1970.720742875384
 10
-3121.544133912196
 20
-1970.994930254661
 10
-3121.790769179233
 20
-1971.274933977349
 10
-3122.034090782294
 20
-1971.560677201816
 10
-3122.274031946445
 20
-1971.852081511331
 10
-3122.510526824448
 20
-1972.149066935587
 10
-3122.743510514836
 20
-1972.45155197265
 10
-3122.972919079718
 20
-1972.759453611323
 10
-3123.198689562331
 20
-1973.072687353925
 10
-3123.420760004302
 20
-1973.391167239483
 10
-3123.639069462681
 20
-1973.71480586732
 10
-3123.853558026634
 20
-1974.043514421044
 10
-3124.064166833898
 20
-1974.377202692914
 10
-3124.270838086944
 20
-1974.715779108607
 10
-3124.473515068819
 20
-1975.059150752341
 10
-3124.672142158729
 20
-1975.407223392374
  0
LWPOLYLINE
  5
AD
100
AcDbEntity
  8
HATCH
  6
CONTINUOUS
 62
     7
100
AcDbPolyline
 90
       36
 70
     0
 43
0.0
 10
-3022.139793070389
 20
-2008.974384376696
 10
-3021.941181707597
 20
-2009.322319115025
 10
-3021.738523156191
 20
-2009.665554531812
 10
-3021.53187300176
 20
-2010.003996483776
 10
-3021.321287924711
 20
-2010.337552142394
 10
-3021.106825684729
 20
-2010.666130019369
 10
-3020.888545104945
 20
-2010.989639991716
 10
-3020.666506055773
 20
-2011.307993326488
 10
-3020.440769438527
 20
-2011.621102705108
 10
-3020.211397168684
 20
-2011.928882247323
 10
-3019.978452158921
 20
-2012.231247534759
 10
-3019.741998301849
 20
-2012.52811563407
 10
-3019.502100452496
 20
-2012.819405119695
 10
-3019.258824410514
 20
-2013.105036096183
 10
-3019.012236902132
 20
-2013.384930220111
 10
-3018.762405561856
 20
-2013.659010721569
 10
-3018.50939891391
 20
-2013.927202425223
 10
-3018.253286353458
 20
-2014.189431770926
 10
-3017.994138127555
 20
-2014.4456268339
 10
-3017.732025315878
 20
-2014.695717344461
 10
-3017.467019811249
 20
-2014.939634707296
 10
-3017.199194299888
 20
-2015.177312020271
 10
-3016.928622241511
 20
-2015.408684092789
 10
-3016.655377849145
 20
-2015.633687463664
 10
-3016.379536068795
 20
-2015.852260418531
 10
-3016.101172558892
 20
-2016.064343006773
 10
-3015.820363669517
 20
-2016.269877057962
 10
-3015.537186421488
 20
-2016.468806197816
 10
-3015.25171848521
 20
-2016.66107586366
 10
-3014.964038159392
 20
-2016.846633319395
 10
-3014.674224349553
 20
-2017.02542766996
 10
-3014.382356546394
 20
-2017.197409875288
 10
-3014.088514803985
 20
-2017.362532763763
 10
-3013.792779717819
 20
-2017.520751045158
 10
-3013.49523240269
 20
-2017.672021323052
 10
-3013.195954470461
 20
-2017.816302106737
  0
LWPOLYLINE
  5
AE
100
AcDbEntity
  8
HATCH
  6
CONTINUOUS
 62
     7
100
AcDbPolyline
 90
       36
 70
     0
 43
0.0
 10
-3013.195954470464
 20
-1966.561980565446
 10
-3013.495313342914
 20
-1966.70630143145
 10
-3013.792940637177
 20
-1966.857615572525
 10
-3014.088754675167
 20
-1967.015881463415
 10
-3014.382674276413
 20
-1967.181055671093
 10
-3014.674618780336
 20
-1967.353092866674
 10
-3014.964508068388
 20
-1967.531945837862
 10
-3015.252262586029
 20
-1967.717565501899
 10
-3015.53780336457
 20
-1967.909900919041
 10
-3015.821052042835
 20
-1968.108899306534
 10
-3016.10193088868
 20
-1968.314506053097
 10
-3016.380362820308
 20
-1968.526664733918
 10
-3016.656271427432
 20
-1968.745317126128
 10
-3016.929580992243
 20
-1968.970403224785
 10
-3017.200216510195
 20
-1969.201861259341
 10
-3017.468103710573
 20
-1969.439627710592
 10
-3017.733169076889
 20
-1969.68363732811
 10
-3017.995339867058
 20
-1969.933823148151
 10
-3018.254544133346
 20
-1970.190116512031
 10
-3018.510710742136
 20
-1970.452447084968
 10
-3018.763769393425
 20
-1970.720742875384
 10
-3019.013650640141
 20
-1970.994930254661
 10
-3019.260285907177
 20
-1971.274933977349
 10
-3019.503607510239
 20
-1971.560677201816
 10
-3019.74354867439
 20
-1971.852081511331
 10
-3019.980043552392
 20
-1972.149066935587
 10
-3020.21302724278
 20
-1972.45155197265
 10
-3020.442435807662
 20
-1972.759453611323
 10
-3020.668206290275
 20
-1973.072687353925
 10
-3020.890276732247
 20
-1973.391167239483
 10
-3021.108586190624
 20
-1973.71480586732
 10
-3021.323074754578
 20
-1974.043514421044
 10
-3021.533683561843
 20
-1974.377202692914
 10
-3021.740354814889
 20
-1974.715779108607
 10
-3021.943031796763
 20
-1975.059150752341
 10
-3022.141658886673
 20
-1975.407223392374
  0
LWPOLYLINE
  5
AF
100
AcDbEntity
  8
HATCH
  6
CONTINUOUS
 62
     7
100
AcDbPolyline
 90
       36
 70
     0
 43
0.0
 10
-3116.861365323265
 20
-1864.811068166732
 10
-3116.355681876385
 20
-1865.159629052911
 10
-3115.849297679231
 20
-1865.506149294775
 10
-3115.342216849222
 20
-1865.850626074763
 10
-3114.83444350944
 20
-1866.19305659193
 10
-3114.325981788595
 20
-1866.533438061968
 10
-3113.816835820997
 20
-1866.871767717232
 10
-3113.307009746515
 20
-1867.208042806759
 10
-3112.796507710559
 20
-1867.542260596291
 10
-3112.28533386402
 20
-1867.8744183683
 10
-3111.773492363264
 20
-1868.204513422006
 10
-3111.260987370077
 20
-1868.532543073402
 10
-3110.747823051648
 20
-1868.858504655273
 10
-3110.23400358052
 20
-1869.182395517225
 10
-3109.719533134569
 20
-1869.504213025694
 10
-3109.204415896955
 20
-1869.823954563978
 10
-3108.688656056108
 20
-1870.141617532254
 10
-3108.172257805679
 20
-1870.457199347603
 10
-3107.655225344505
 20
-1870.770697444021
 10
-3107.137562876583
 20
-1871.082109272455
 10
-3106.619274611039
 20
-1871.391432300809
 10
-3106.100364762074
 20
-1871.698664013974
 10
-3105.580837548957
 20
-1872.003801913844
 10
-3105.06069719597
 20
-1872.306843519341
 10
-3104.53994793238
 20
-1872.607786366428
 10
-3104.018593992404
 20
-1872.906628008134
 10
-3103.496639615177
 20
-1873.203366014575
 10
-3102.974089044723
 20
-1873.497997972971
 10
-3102.450946529901
 20
-1873.790521487664
 10
-3101.927216324393
 20
-1874.080934180143
 10
-3101.402902686658
 20
-1874.369233689058
 10
-3100.878009879892
 20
-1874.655417670242
 10
-3100.352542172009
 20
-1874.939483796729
 10
-3099.82650383559
 20
-1875.221429758773
 10
-3099.299899147865
 20
-1875.501253263869
 10
-3098.772732390659
 20
-1875.778952036768
  0
LINE
  5
B0
100
AcDbEntity
  8
HATCH
  6
CONTINUOUS
 62
     7
100
AcDbLine
 10
-3098.755814106477
 20
-2066.189141336092
 30
0.0
 11
-3147.192623056482
 21
-2023.385590730303
 31
0.0
  0
LINE
  5
B1
100
AcDbEntity
  8
HATCH
  6
CONTINUOUS
 62
     7
100
AcDbLine
 10
-3019.559863706481
 20
-2066.189141336092
 30
0.0
 11
-3098.755814106477
 21
-2066.189141336092
 31
0.0
  0
LWPOLYLINE
  5
B2
100
AcDbEntity
  8
HATCH
  6
CONTINUOUS
 62
     7
100
AcDbPolyline
 90
        6
 70
     1
 43
0.0
 10
-3069.919941585819
 20
-2049.819951320585
 10
-3057.89912768582
 20
-2040.004996744362
 10
-3057.899127685818
 20
-2020.375087591916
 10
-3069.919941585816
 20
-2010.560133015692
 10
-3081.940755485817
 20
-2020.375087591916
 10
-3081.94075548582
 20
-2040.004996744362
  0
LWPOLYLINE
  5
B3
100
AcDbEntity
  8
HATCH
  6
CONTINUOUS
 62
     7
100
AcDbPolyline
 90
       36
 70
     1
 43
0.0
 10
-3089.563427006485
 20
-2030.189141336092
 10
-3089.273378436391
 20
-2034.877642133099
 10
-3088.412045705138
 20
-2039.423685205886
 10
-3087.005599971912
 20
-2043.689141336093
 10
-3085.096775378617
 20
-2047.544406797629
 10
-3082.743570594615
 20
-2050.872341300305
 10
-3080.017486556483
 20
-2053.571827238272
 10
-3077.001353948258
 20
-2055.560842097312
 10
-3073.786816433
 20
-2056.778950667422
 10
-3070.471546106482
 20
-2057.189141336092
 10
-3067.156275779961
 20
-2056.778950667422
 10
-3063.941738264706
 20
-2055.560842097312
 10
-3060.92560565648
 20
-2053.571827238272
 10
-3058.199521618348
 20
-2050.872341300305
 10
-3055.846316834347
 20
-2047.544406797629
 10
-3053.937492241051
 20
-2043.689141336093
 10
-3052.531046507825
 20
-2039.423685205886
 10
-3051.669713776572
 20
-2034.877642133099
 10
-3051.379665206479
 20
-2030.189141336092
 10
-3051.669713776572
 20
-2025.500640539085
 10
-3052.531046507825
 20
-2020.954597466299
 10
-3053.937492241051
 20
-2016.689141336092
 10
-3055.846316834347
 20
-2012.833875874555
 10
-3058.199521618348
 20
-2009.505941371879
 10
-3060.92560565648
 20
-2006.806455433912
 10
-3063.941738264706
 20
-2004.817440574872
 10
-3067.156275779961
 20
-2003.599332004762
 10
-3070.471546106482
 20
-2003.189141336092
 10
-3073.786816433
 20
-2003.599332004762
 10
-3077.001353948258
 20
-2004.817440574872
 10
-3080.017486556483
 20
-2006.806455433912
 10
-3082.743570594615
 20
-2009.505941371879
 10
-3085.096775378617
 20
-2012.833875874555
 10
-3087.005599971912
 20
-2016.689141336092
 10
-3088.412045705138
 20
-2020.954597466299
 10
-3089.273378436391
 20
-2025.500640539085
  0
LINE
  5
B4
100
AcDbEntity
  8
HATCH
  6
CONTINUOUS
 62
     7
100
AcDbLine
 10
-3069.919941585822
 20
-2049.819951320585
 30
0.0
 11
-3057.363700737301
 21
-2049.819951320585
 31
0.0
  0
LINE
  5
B5
100
AcDbEntity
  8
HATCH
  6
CONTINUOUS
 62
     7
100
AcDbLine
 10
-3057.89912768582
 20
-2040.00499674436
 30
0.0
 11
-3052.686034624817
 21
-2040.00499674436
 31
0.0
  0
LINE
  5
B6
100
AcDbEntity
  8
HATCH
  6
CONTINUOUS
 62
     7
100
AcDbLine
 10
-3057.899127685818
 20
-2020.375087591916
 30
0.0
 11
-3052.685537506697
 21
-2020.375087591916
 31
0.0
  0
LINE
  5
B7
100
AcDbEntity
  8
HATCH
  6
CONTINUOUS
 62
     7
100
AcDbLine
 10
-3069.919941585819
 20
-2010.560133015692
 30
0.0
 11
-3057.362351748448
 21
-2010.560133015692
 31
0.0
  0
LWPOLYLINE
  5
B8
100
AcDbEntity
  8
HATCH
  6
CONTINUOUS
 62
     7
100
AcDbPolyline
 90
       36
 70
     0
 43
0.0
 10
-3073.405034706406
 20
-2046.974384376697
 10
-3073.206423343613
 20
-2047.322319115026
 10
-3073.003764792207
 20
-2047.665554531814
 10
-3072.797114637776
 20
-2048.003996483778
 10
-3072.586529560727
 20
-2048.337552142395
 10
-3072.372067320745
 20
-2048.666130019371
 10
-3072.153786740961
 20
-2048.989639991718
 10
-3071.931747691789
 20
-2049.307993326489
 10
-3071.706011074544
 20
-2049.621102705109
 10
-3071.4766388047
 20
-2049.928882247325
 10
-3071.243693794937
 20
-2050.23124753476
 10
-3071.007239937865
 20
-2050.528115634072
 10
-3070.767342088512
 20
-2050.819405119697
 10
-3070.524066046531
 20
-2051.105036096184
 10
-3070.277478538148
 20
-2051.384930220112
 10
-3070.027647197873
 20
-2051.659010721571
 10
-3069.774640549926
 20
-2051.927202425225
 10
-3069.518527989474
 20
-2052.189431770927
 10
-3069.259379763571
 20
-2052.445626833902
 10
-3068.997266951895
 20
-2052.695717344462
 10
-3068.732261447265
 20
-2052.939634707297
 10
-3068.464435935905
 20
-2053.177312020272
 10
-3068.193863877527
 20
-2053.40868409279
 10
-3067.920619485161
 20
-2053.633687463666
 10
-3067.644777704811
 20
-2053.852260418533
 10
-3067.366414194907
 20
-2054.064343006774
 10
-3067.085605305533
 20
-2054.269877057963
 10
-3066.802428057505
 20
-2054.468806197817
 10
-3066.516960121226
 20
-2054.661075863661
 10
-3066.229279795408
 20
-2054.846633319397
 10
-3065.93946598557
 20
-2055.025427669961
 10
-3065.64759818241
 20
-2055.197409875289
 10
-3065.353756440001
 20
-2055.362532763765
 10
-3065.058021353836
 20
-2055.52075104516
 10
-3064.760474038707
 20
-2055.672021323053
 10
-3064.461196106478
 20
-2055.816302106738
  0
LWPOLYLINE
  5
B9
100
AcDbEntity
  8
HATCH
  6
CONTINUOUS
 62
     7
100
AcDbPolyline
 90
       36
 70
     0
 43
0.0
 10
-3064.46119610648
 20
-2004.561980565447
 10
-3064.76055497893
 20
-2004.706301431452
 10
-3065.058182273193
 20
-2004.857615572527
 10
-3065.353996311183
 20
-2005.015881463417
 10
-3065.64791591243
 20
-2005.181055671095
 10
-3065.939860416353
 20
-2005.353092866676
 10
-3066.229749704404
 20
-2005.531945837863
 10
-3066.517504222046
 20
-2005.717565501901
 10
-3066.803045000586
 20
-2005.909900919042
 10
-3067.086293678851
 20
-2006.108899306535
 10
-3067.367172524697
 20
-2006.314506053099
 10
-3067.645604456325
 20
-2006.526664733919
 10
-3067.921513063449
 20
-2006.745317126129
 10
-3068.19482262826
 20
-2006.970403224786
 10
-3068.465458146212
 20
-2007.201861259343
 10
-3068.733345346589
 20
-2007.439627710593
 10
-3068.998410712905
 20
-2007.683637328111
 10
-3069.260581503075
 20
-2007.933823148152
 10
-3069.519785769362
 20
-2008.190116512033
 10
-3069.775952378152
 20
-2008.452447084969
 10
-3070.029011029441
 20
-2008.720742875385
 10
-3070.278892276157
 20
-2008.994930254663
 10
-3070.525527543193
 20
-2009.274933977351
 10
-3070.768849146255
 20
-2009.560677201818
 10
-3071.008790310406
 20
-2009.852081511332
 10
-3071.245285188409
 20
-2010.149066935588
 10
-3071.478268878797
 20
-2010.451551972652
 10
-3071.707677443679
 20
-2010.759453611325
 10
-3071.933447926291
 20
-2011.072687353927
 10
-3072.155518368263
 20
-2011.391167239485
 10
-3072.373827826641
 20
-2011.714805867322
 10
-3072.588316390595
 20
-2012.043514421046
 10
-3072.798925197859
 20
-2012.377202692916
 10
-3073.005596450905
 20
-2012.715779108609
 10
-3073.208273432779
 20
-2013.059150752342
 10
-3073.40690052269
 20
-2013.407223392375
  0
LWPOLYLINE
  5
BA
100
AcDbEntity
  8
HATCH
  6
CONTINUOUS
 62
     7
100
AcDbPolyline
 90
       36
 70
     1
 43
0.0
 10
-3009.660369906479
 20
-1930.189141336091
 10
-3009.606657208314
 20
-1931.057382224426
 10
-3009.447151146972
 20
-1931.899242052719
 10
-3009.18669823341
 20
-1932.689141336092
 10
-3008.833212197616
 20
-1933.403079384524
 10
-3008.39743353391
 20
-1934.019363551687
 10
-3007.892603156479
 20
-1934.519268355014
 10
-3007.334060080883
 20
-1934.887604440021
 10
-3006.738775355836
 20
-1935.113180101153
 10
-3006.124836406479
 20
-1935.189141336092
 10
-3005.510897457124
 20
-1935.113180101153
 10
-3004.915612732077
 20
-1934.887604440021
 10
-3004.35706965648
 20
-1934.519268355014
 10
-3003.85223927905
 20
-1934.019363551687
 10
-3003.416460615344
 20
-1933.403079384524
 10
-3003.06297457955
 20
-1932.689141336092
 10
-3002.802521665988
 20
-1931.899242052719
 10
-3002.643015604647
 20
-1931.057382224426
 10
-3002.58930290648
 20
-1930.189141336091
 10
-3002.643015604647
 20
-1929.320900447756
 10
-3002.802521665988
 20
-1928.479040619463
 10
-3003.06297457955
 20
-1927.689141336091
 10
-3003.416460615344
 20
-1926.975203287658
 10
-3003.85223927905
 20
-1926.358919120495
 10
-3004.35706965648
 20
-1925.859014317168
 10
-3004.915612732077
 20
-1925.490678232161
 10
-3005.510897457124
 20
-1925.265102571028
 10
-3006.124836406479
 20
-1925.18914133609
 10
-3006.738775355836
 20
-1925.265102571028
 10
-3007.334060080883
 20
-1925.490678232161
 10
-3007.892603156479
 20
-1925.859014317168
 10
-3008.39743353391
 20
-1926.358919120495
 10
-3008.833212197616
 20
-1926.975203287658
 10
-3009.18669823341
 20
-1927.68914133609
 10
-3009.447151146972
 20
-1928.479040619463
 10
-3009.606657208314
 20
-1929.320900447756
  0
LWPOLYLINE
  5
BB
100
AcDbEntity
  8
PISTOLPORT
  6
CONTINUOUS
 62
     7
100
AcDbPolyline
 90
       36
 70
     0
 43
0.0
 10
-3033.701993484787
 20
-1494.189141336094
 10
-3020.997948512941
 20
-1494.933896946974
 10
-3008.396189041354
 20
-1497.162167445346
 10
-2995.99817702757
 20
-1500.856012107361
 10
-2983.903733974418
 20
-1505.985690267743
 10
-2972.210237225939
 20
-1512.509900774146
 10
-2961.011835942288
 20
-1520.376114519748
 10
-2950.398693066048
 20
-1529.520997376728
 10
-2940.456259383236
 20
-1539.870920125425
 10
-2931.264585523802
 20
-1551.342551273524
 10
-2922.897677441053
 20
-1563.843527992228
 10
-2915.422900559201
 20
-1577.273199767454
 10
-2908.900437386611
 20
-1591.523438778589
 10
-2903.382802961596
 20
-1606.479510480118
 10
-2898.914422032228
 20
-1622.020997376728
 10
-2895.531271374386
 20
-1638.022768554175
 10
-2893.260590127912
 20
-1654.355987159828
 10
-2892.120660483056
 20
-1670.889147721248
 10
-2892.120660483056
 20
-1687.489134950939
 10
-2893.260590127912
 20
-1704.02229551236
 10
-2895.531271374386
 20
-1720.355514118012
 10
-2898.914422032228
 20
-1736.357285295459
 10
-2903.382802961596
 20
-1751.898772192069
 10
-2908.900437386611
 20
-1766.854843893598
 10
-2915.422900559201
 20
-1781.105082904733
 10
-2922.897677441053
 20
-1794.534754679959
 10
-2931.264585523802
 20
-1807.035731398663
 10
-2940.456259383236
 20
-1818.507362546761
 10
-2950.398693066048
 20
-1828.857285295458
 10
-2961.011835942288
 20
-1838.002168152438
 10
-2972.210237225939
 20
-1845.868381898041
 10
-2983.903733974418
 20
-1852.392592404444
 10
-2995.99817702757
 20
-1857.522270564826
 10
-3008.396189041354
 20
-1861.21611522684
 10
-3020.997948512941
 20
-1863.444385725212
 10
-3033.701993484787
 20
-1864.189141336093
  0
LWPOLYLINE
  5
BC
100
AcDbEntity
  8
PISTOLPORT
  6
CONTINUOUS
 62
     7
100
AcDbPolyline
 90
       36
 70
     0
 43
0.0
 10
-3088.385738144594
 20
-1506.878184032887
 10
-3074.590042385777
 20
-1500.477576013546
 10
-3060.377762695973
 20
-1496.278476348818
 10
-3045.92397701386
 20
-1494.332612821278
 10
-3031.406738337167
 20
-1494.66395609452
 10
-3017.004881327071
 20
-1497.268424423842
 10
-3002.895819283451
 20
-1502.113933938369
 10
-2989.25335862957
 20
-1509.14079387517
 10
-2976.245557829091
 20
-1518.262441896602
 10
-2964.032657110931
 20
-1529.366510432665
 10
-2952.765104505226
 20
-1542.316210912297
 10
-2942.581702507231
 20
-1556.952018831616
 10
-2933.607898199995
 20
-1573.093638901102
 10
-2925.954237899414
 20
-1590.542226063491
 10
-2919.715005358562
 20
-1609.082835022183
 10
-2914.967060306907
 20
-1628.487068104937
 10
-2911.768891632295
 20
-1648.515888844416
 10
-2910.15989686919
 20
-1668.92256661571
 10
-2910.15989686919
 20
-1689.455716056476
 10
-2911.768891632295
 20
-1709.86239382777
 10
-2914.967060306907
 20
-1729.89121456725
 10
-2919.715005358562
 20
-1749.295447650004
 10
-2925.954237899414
 20
-1767.836056608695
 10
-2933.607898199995
 20
-1785.284643771084
 10
-2942.581702507231
 20
-1801.42626384057
 10
-2952.765104505226
 20
-1816.06207175989
 10
-2964.032657110931
 20
-1829.011772239521
 10
-2976.245557829091
 20
-1840.115840775583
 10
-2989.25335862957
 20
-1849.237488797017
 10
-3002.895819283451
 20
-1856.264348733818
 10
-3017.004881327071
 20
-1861.109858248345
 10
-3031.406738337167
 20
-1863.714326577667
 10
-3045.92397701386
 20
-1864.045669850908
 10
-3060.37776269597
 20
-1862.099806323368
 10
-3074.590042385777
 20
-1857.900706658642
 10
-3088.385738144591
 20
-1851.5000986393
  0
LWPOLYLINE
  5
BD
100
AcDbEntity
  8
PISTOLPORT
  6
CONTINUOUS
 62
     7
100
AcDbPolyline
 90
       36
 70
     0
 43
0.0
 10
-3183.597751632431
 20
-1671.071508031921
 10
-3180.657454288121
 20
-1640.409633194733
 10
-3173.948220751641
 20
-1610.957746392982
 10
-3163.679390766973
 20
-1583.634797669074
 10
-3150.171369672268
 20
-1559.293310498252
 10
-3133.845631196578
 20
-1538.692781574851
 10
-3115.211566747165
 20
-1522.47598319578
 10
-3094.850591512515
 20
-1511.148907648001
 10
-3073.398003298209
 20
-1505.064979369991
 10
-3051.523160131526
 20
-1504.414027495169
 10
-3029.908595127952
 20
-1509.216362853091
 10
-3009.228720272041
 20
-1519.322144236281
 10
-2990.128783591659
 20
-1534.416053706259
 10
-2973.204736298372
 20
-1554.027135061107
 10
-2958.98463807415
 20
-1577.543488487269
 10
-2947.912180691754
 20
-1604.231362896958
 10
-2940.332844060491
 20
-1633.25805023701
 10
-2936.483116652743
 20
-1663.717867427029
 10
-2936.483116652743
 20
-1694.660415245158
 10
-2940.332844060491
 20
-1725.120232435177
 10
-2947.912180691754
 20
-1754.146919775229
 10
-2958.98463807415
 20
-1780.834794184918
 10
-2973.204736298372
 20
-1804.35114761108
 10
-2990.128783591659
 20
-1823.962228965927
 10
-3009.228720272041
 20
-1839.056138435906
 10
-3029.908595127952
 20
-1849.161919819096
 10
-3051.523160131526
 20
-1853.964255177018
 10
-3073.398003298209
 20
-1853.313303302196
 10
-3094.850591512515
 20
-1847.229375024186
 10
-3115.211566747165
 20
-1835.902299476406
 10
-3133.845631196578
 20
-1819.685501097335
 10
-3150.171369672268
 20
-1799.084972173934
 10
-3163.679390766973
 20
-1774.743485003112
 10
-3173.948220751641
 20
-1747.420536279205
 10
-3180.657454288121
 20
-1717.968649477454
 10
-3183.597751632431
 20
-1687.306774640266
  0
LWPOLYLINE
  5
BE
100
AcDbEntity
  8
PISTOLPORT
  6
CONTINUOUS
 62
     7
100
AcDbPolyline
 90
       36
 70
     1
 43
0.0
 10
-3099.81647752573
 20
-1809.092951903759
 10
-3100.058184695226
 20
-1813.000035901265
 10
-3100.775962053681
 20
-1816.788405128587
 10
-3101.948000299271
 20
-1820.34295190376
 10
-3103.538687642984
 20
-1823.555673121706
 10
-3105.499691854805
 20
-1826.328951873936
 10
-3107.77142881408
 20
-1828.578523488909
 10
-3110.284872942848
 20
-1830.236035871443
 10
-3112.963654513126
 20
-1831.251126346534
 10
-3115.726380102427
 20
-1831.592951903759
 10
-3118.489105691727
 20
-1831.251126346534
 10
-3121.167887262005
 20
-1830.236035871443
 10
-3123.681331390773
 20
-1828.578523488909
 10
-3125.953068350049
 20
-1826.328951873936
 10
-3127.914072561869
 20
-1823.555673121706
 10
-3129.504759905582
 20
-1820.34295190376
 10
-3130.676798151172
 20
-1816.788405128587
 10
-3131.394575509627
 20
-1813.000035901265
 10
-3131.636282679123
 20
-1809.092951903759
 10
-3131.394575509627
 20
-1805.185867906254
 10
-3130.676798151172
 20
-1801.397498678931
 10
-3129.504759905582
 20
-1797.84295190376
 10
-3127.914072561869
 20
-1794.630230685813
 10
-3125.953068350049
 20
-1791.856951933583
 10
-3123.681331390776
 20
-1789.60738031861
 10
-3121.167887262005
 20
-1787.949867936077
 10
-3118.489105691727
 20
-1786.934777460985
 10
-3115.726380102427
 20
-1786.59295190376
 10
-3112.963654513126
 20
-1786.934777460985
 10
-3110.284872942848
 20
-1787.949867936077
 10
-3107.77142881408
 20
-1789.60738031861
 10
-3105.499691854805
 20
-1791.856951933583
 10
-3103.538687642984
 20
-1794.630230685813
 10
-3101.948000299271
 20
-1797.842951903759
 10
-3100.775962053681
 20
-1801.397498678931
 10
-3100.058184695226
 20
-1805.185867906254
  0
LWPOLYLINE
  5
BF
100
AcDbEntity
  8
PISTOLPORT
  6
CONTINUOUS
 62
     7
100
AcDbPolyline
 90
       36
 70
     1
 43
0.0
 10
-3099.81647752573
 20
-1549.285330768427
 10
-3100.058184695226
 20
-1553.192414765933
 10
-3100.775962053681
 20
-1556.980783993255
 10
-3101.948000299271
 20
-1560.535330768428
 10
-3103.538687642984
 20
-1563.748051986375
 10
-3105.499691854805
 20
-1566.521330738605
 10
-3107.77142881408
 20
-1568.770902353578
 10
-3110.284872942848
 20
-1570.42841473611
 10
-3112.963654513126
 20
-1571.443505211202
 10
-3115.726380102427
 20
-1571.785330768428
 10
-3118.489105691727
 20
-1571.443505211202
 10
-3121.167887262005
 20
-1570.42841473611
 10
-3123.681331390776
 20
-1568.770902353578
 10
-3125.953068350049
 20
-1566.521330738605
 10
-3127.914072561869
 20
-1563.748051986375
 10
-3129.504759905582
 20
-1560.535330768428
 10
-3130.676798151172
 20
-1556.980783993255
 10
-3131.394575509627
 20
-1553.192414765933
 10
-3131.636282679123
 20
-1549.285330768427
 10
-3131.394575509627
 20
-1545.378246770921
 10
-3130.676798151172
 20
-1541.589877543599
 10
-3129.504759905582
 20
-1538.035330768427
 10
-3127.914072561869
 20
-1534.82260955048
 10
-3125.953068350049
 20
-1532.049330798251
 10
-3123.681331390776
 20
-1529.799759183277
 10
-3121.167887262005
 20
-1528.142246800744
 10
-3118.489105691727
 20
-1527.127156325652
 10
-3115.726380102427
 20
-1526.785330768427
 10
-3112.963654513126
 20
-1527.127156325652
 10
-3110.284872942848
 20
-1528.142246800744
 10
-3107.77142881408
 20
-1529.799759183277
 10
-3105.499691854805
 20
-1532.049330798251
 10
-3103.538687642984
 20
-1534.82260955048
 10
-3101.948000299271
 20
-1538.035330768427
 10
-3100.775962053681
 20
-1541.589877543599
 10
-3100.058184695226
 20
-1545.378246770921
  0
LWPOLYLINE
  5
C0
100
AcDbEntity
  8
PISTOLPORT
  6
CONTINUOUS
 62
     7
100
AcDbPolyline
 90
       36
 70
     1
 43
0.0
 10
-2940.717451758755
 20
-1679.189141336093
 10
-2940.959158928252
 20
-1683.096225333599
 10
-2941.676936286707
 20
-1686.884594560922
 10
-2942.848974532297
 20
-1690.439141336094
 10
-2944.43966187601
 20
-1693.65186255404
 10
-2946.40066608783
 20
-1696.425141306271
 10
-2948.672403047106
 20
-1698.674712921243
 10
-2951.185847175874
 20
-1700.332225303776
 10
-2953.864628746152
 20
-1701.347315778868
 10
-2956.627354335452
 20
-1701.689141336093
 10
-2959.390079924753
 20
-1701.347315778868
 10
-2962.068861495031
 20
-1700.332225303776
 10
-2964.582305623799
 20
-1698.674712921243
 10
-2966.854042583074
 20
-1696.425141306271
 10
-2968.815046794895
 20
-1693.65186255404
 10
-2970.405734138607
 20
-1690.439141336094
 10
-2971.577772384197
 20
-1686.884594560922
 10
-2972.295549742653
 20
-1683.096225333599
 10
-2972.537256912148
 20
-1679.189141336093
 10
-2972.295549742653
 20
-1675.282057338588
 10
-2971.577772384197
 20
-1671.493688111266
 10
-2970.405734138607
 20
-1667.939141336094
 10
-2968.815046794895
 20
-1664.726420118147
 10
-2966.854042583074
 20
-1661.953141365917
 10
-2964.582305623801
 20
-1659.703569750944
 10
-2962.068861495031
 20
-1658.046057368411
 10
-2959.390079924753
 20
-1657.030966893319
 10
-2956.627354335452
 20
-1656.689141336094
 10
-2953.864628746152
 20
-1657.030966893319
 10
-2951.185847175874
 20
-1658.046057368411
 10
-2948.672403047106
 20
-1659.703569750944
 10
-2946.40066608783
 20
-1661.953141365917
 10
-2944.43966187601
 20
-1664.726420118147
 10
-2942.848974532297
 20
-1667.939141336093
 10
-2941.676936286707
 20
-1671.493688111266
 10
-2940.959158928252
 20
-1675.282057338588
  0
LWPOLYLINE
  5
C1
100
AcDbEntity
  8
PISTOLPORT
  6
CONTINUOUS
 62
     7
100
AcDbPolyline
 90
       36
 70
     0
 43
0.0
 10
-2954.506033991891
 20
-1656.689141336094
 10
-2953.079881320194
 20
-1656.779719721201
 10
-2951.665211191245
 20
-1657.050725592624
 10
-2950.273413697115
 20
-1657.499976970437
 10
-2948.915694772855
 20
-1658.1238567467
 10
-2947.602985972917
 20
-1658.917341808289
 10
-2946.345856456703
 20
-1659.874043480052
 10
-2945.154427891899
 20
-1660.986258962657
 10
-2944.038292960756
 20
-1662.245033351013
 10
-2943.00643812546
 20
-1663.640231733889
 10
-2942.067171274429
 20
-1665.160620794272
 10
-2941.228054832069
 20
-1666.793959253421
 10
-2940.495844870577
 20
-1668.527096430451
 10
-2939.876436714031
 20
-1670.34607812388
 10
-2939.374817472703
 20
-1672.236258962657
 10
-2938.995025889775
 20
-1674.182420322076
 10
-2938.740119823762
 20
-1676.168892855197
 10
-2938.612151628422
 20
-1678.179682653206
 10
-2938.612151628422
 20
-1680.19860001898
 10
-2938.740119823762
 20
-1682.20938981699
 10
-2938.995025889775
 20
-1684.195862350111
 10
-2939.374817472703
 20
-1686.14202370953
 10
-2939.876436714031
 20
-1688.032204548307
 10
-2940.495844870577
 20
-1689.851186241736
 10
-2941.228054832069
 20
-1691.584323418766
 10
-2942.067171274429
 20
-1693.217661877915
 10
-2943.00643812546
 20
-1694.738050938298
 10
-2944.038292960756
 20
-1696.133249321174
 10
-2945.154427891899
 20
-1697.39202370953
 10
-2946.345856456703
 20
-1698.504239192135
 10
-2947.602985972917
 20
-1699.460940863898
 10
-2948.915694772855
 20
-1700.254425925487
 10
-2950.273413697115
 20
-1700.87830570175
 10
-2951.665211191245
 20
-1701.327557079563
 10
-2953.079881320194
 20
-1701.598562950986
 10
-2954.506033991891
 20
-1701.689141336093
  0
LINE
  5
C2
100
AcDbEntity
  8
PISTOLPORT
  6
CONTINUOUS
 62
     7
100
AcDbLine
 10
-3058.544412957528
 20
-1701.689141336093
 30
0.0
 11
-3058.544412957528
 21
-1656.689141336093
 31
0.0
  0
LINE
  5
C3
100
AcDbEntity
  8
PISTOLPORT
  6
CONTINUOUS
 62
     7
100
AcDbLine
 10
-3131.896153938498
 20
-1656.689141336093
 30
0.0
 11
-3131.896153938498
 21
-1701.689141336093
 31
0.0
  0
LINE
  5
C4
100
AcDbEntity
  8
PISTOLPORT
  6
CONTINUOUS
 62
     7
100
AcDbLine
 10
-3076.128400355978
 20
-1701.689141336093
 30
0.0
 11
-3076.128400355978
 21
-1656.689141336093
 31
0.0
  0
LINE
  5
C5
100
AcDbEntity
  8
PISTOLPORT
  6
CONTINUOUS
 62
     7
100
AcDbLine
 10
-3070.471546106484
 20
-1701.689141336093
 30
0.0
 11
-3070.471546106484
 21
-1656.689141336093
 31
0.0
  0
LINE
  5
C6
100
AcDbEntity
  8
PISTOLPORT
  6
CONTINUOUS
 62
     7
100
AcDbLine
 10
-2954.506033991891
 20
-1701.689141336093
 30
0.0
 11
-2956.627354335452
 21
-1701.689141336093
 31
0.0
  0
LWPOLYLINE
  5
C7
100
AcDbEntity
  8
PISTOLPORT
  6
CONTINUOUS
 62
     7
100
AcDbPolyline
 90
       36
 70
     1
 43
0.0
 10
-2993.750460347744
 20
-1809.092951903759
 10
-2993.992167517243
 20
-1813.000035901265
 10
-2994.709944875698
 20
-1816.788405128587
 10
-2995.881983121286
 20
-1820.34295190376
 10
-2997.472670464999
 20
-1823.555673121706
 10
-2999.433674676819
 20
-1826.328951873936
 10
-3001.705411636094
 20
-1828.578523488909
 10
-3004.218855764862
 20
-1830.236035871443
 10
-3006.897637335141
 20
-1831.251126346534
 10
-3009.66036292444
 20
-1831.592951903759
 10
-3012.423088513743
 20
-1831.251126346534
 10
-3015.101870084023
 20
-1830.236035871443
 10
-3017.61531421279
 20
-1828.578523488909
 10
-3019.887051172062
 20
-1826.328951873936
 10
-3021.848055383886
 20
-1823.555673121706
 10
-3023.438742727596
 20
-1820.34295190376
 10
-3024.610780973189
 20
-1816.788405128587
 10
-3025.328558331644
 20
-1813.000035901265
 10
-3025.57026550114
 20
-1809.092951903759
 10
-3025.328558331644
 20
-1805.185867906254
 10
-3024.610780973189
 20
-1801.397498678931
 10
-3023.438742727596
 20
-1797.84295190376
 10
-3021.848055383886
 20
-1794.630230685813
 10
-3019.887051172062
 20
-1791.856951933583
 10
-3017.61531421279
 20
-1789.60738031861
 10
-3015.101870084023
 20
-1787.949867936077
 10
-3012.423088513743
 20
-1786.934777460985
 10
-3009.66036292444
 20
-1786.59295190376
 10
-3006.897637335141
 20
-1786.934777460985
 10
-3004.218855764862
 20
-1787.949867936077
 10
-3001.705411636094
 20
-1789.60738031861
 10
-2999.433674676819
 20
-1791.856951933583
 10
-2997.472670464999
 20
-1794.630230685813
 10
-2995.881983121286
 20
-1797.842951903759
 10
-2994.709944875698
 20
-1801.397498678931
 10
-2993.992167517243
 20
-1805.185867906254
  0
LWPOLYLINE
  5
C8
100
AcDbEntity
  8
PISTOLPORT
  6
CONTINUOUS
 62
     7
100
AcDbPolyline
 90
       36
 70
     0
 43
0.0
 10
-3007.539042580885
 20
-1786.592951903761
 10
-3006.112889909188
 20
-1786.683530288868
 10
-3004.69821978024
 20
-1786.954536160291
 10
-3003.306422286107
 20
-1787.403787538104
 10
-3001.948703361847
 20
-1788.027667314367
 10
-3000.635994561909
 20
-1788.821152375956
 10
-2999.378865045697
 20
-1789.777854047719
 10
-2998.18743648089
 20
-1790.890069530324
 10
-2997.071301549747
 20
-1792.148843918679
 10
-2996.039446714452
 20
-1793.544042301556
 10
-2995.100179863424
 20
-1795.064431361939
 10
-2994.26106342106
 20
-1796.697769821087
 10
-2993.528853459568
 20
-1798.430906998118
 10
-2992.909445303023
 20
-1800.249888691547
 10
-2992.407826061695
 20
-1802.140069530324
 10
-2992.02803447877
 20
-1804.086230889743
 10
-2991.773128412754
 20
-1806.072703422863
 10
-2991.645160217417
 20
-1808.083493220873
 10
-2991.645160217417
 20
-1810.102410586647
 10
-2991.773128412754
 20
-1812.113200384657
 10
-2992.02803447877
 20
-1814.099672917778
 10
-2992.407826061695
 20
-1816.045834277196
 10
-2992.909445303023
 20
-1817.936015115974
 10
-2993.528853459568
 20
-1819.754996809402
 10
-2994.26106342106
 20
-1821.488133986433
 10
-2995.100179863424
 20
-1823.121472445582
 10
-2996.039446714452
 20
-1824.641861505964
 10
-2997.071301549747
 20
-1826.037059888841
 10
-2998.18743648089
 20
-1827.295834277196
 10
-2999.378865045697
 20
-1828.408049759802
 10
-3000.635994561909
 20
-1829.364751431564
 10
-3001.948703361847
 20
-1830.158236493154
 10
-3003.306422286107
 20
-1830.782116269417
 10
-3004.69821978024
 20
-1831.23136764723
 10
-3006.112889909188
 20
-1831.502373518653
 10
-3007.539042580885
 20
-1831.59295190376
  0
LINE
  5
C9
100
AcDbEntity
  8
PISTOLPORT
  6
CONTINUOUS
 62
     7
100
AcDbLine
 10
-3007.539042580885
 20
-1831.59295190376
 30
0.0
 11
-3009.66036292444
 21
-1831.59295190376
 31
0.0
  0
LINE
  5
CA
100
AcDbEntity
  8
PISTOLPORT
  6
CONTINUOUS
 62
     7
100
AcDbLine
 10
-3007.539042580885
 20
-1786.592951903761
 30
0.0
 11
-3009.66036292444
 21
-1786.59295190376
 31
0.0
  0
LWPOLYLINE
  5
CB
100
AcDbEntity
  8
PISTOLPORT
  6
CONTINUOUS
 62
     7
100
AcDbPolyline
 90
       36
 70
     0
 43
0.0
 10
-3113.605059758863
 20
-1786.592951903761
 10
-3112.178907087169
 20
-1786.683530288868
 10
-3110.76423695822
 20
-1786.954536160291
 10
-3109.372439464087
 20
-1787.403787538104
 10
-3108.014720539826
 20
-1788.027667314367
 10
-3106.702011739892
 20
-1788.821152375956
 10
-3105.444882223678
 20
-1789.777854047719
 10
-3104.253453658873
 20
-1790.890069530324
 10
-3103.137318727728
 20
-1792.148843918679
 10
-3102.105463892435
 20
-1793.544042301556
 10
-3101.166197041401
 20
-1795.064431361939
 10
-3100.327080599041
 20
-1796.697769821087
 10
-3099.594870637548
 20
-1798.430906998118
 10
-3098.975462481003
 20
-1800.249888691547
 10
-3098.473843239675
 20
-1802.140069530324
 10
-3098.094051656747
 20
-1804.086230889743
 10
-3097.839145590735
 20
-1806.072703422863
 10
-3097.711177395394
 20
-1808.083493220873
 10
-3097.711177395394
 20
-1810.102410586647
 10
-3097.839145590735
 20
-1812.113200384657
 10
-3098.094051656747
 20
-1814.099672917778
 10
-3098.473843239675
 20
-1816.045834277196
 10
-3098.975462481003
 20
-1817.936015115974
 10
-3099.594870637548
 20
-1819.754996809402
 10
-3100.327080599041
 20
-1821.488133986433
 10
-3101.166197041401
 20
-1823.121472445582
 10
-3102.105463892435
 20
-1824.641861505964
 10
-3103.137318727728
 20
-1826.037059888841
 10
-3104.253453658873
 20
-1827.295834277196
 10
-3105.444882223678
 20
-1828.408049759802
 10
-3106.702011739892
 20
-1829.364751431564
 10
-3108.014720539826
 20
-1830.158236493154
 10
-3109.372439464087
 20
-1830.782116269417
 10
-3110.76423695822
 20
-1831.23136764723
 10
-3112.178907087169
 20
-1831.502373518653
 10
-3113.605059758863
 20
-1831.59295190376
  0
LINE
  5
CC
100
AcDbEntity
  8
PISTOLPORT
  6
CONTINUOUS
 62
     7
100
AcDbLine
 10
-3113.605059758863
 20
-1831.59295190376
 30
0.0
 11
-3115.726380102427
 21
-1831.59295190376
 31
0.0
  0
LINE
  5
CD
100
AcDbEntity
  8
PISTOLPORT
  6
CONTINUOUS
 62
     7
100
AcDbLine
 10
-3113.605059758863
 20
-1786.592951903761
 30
0.0
 11
-3115.726380102427
 21
-1786.59295190376
 31
0.0
  0
LWPOLYLINE
  5
CE
100
AcDbEntity
  8
PISTOLPORT
  6
CONTINUOUS
 62
     7
100
AcDbPolyline
 90
       36
 70
     0
 43
0.0
 10
-3058.544412957528
 20
-1701.689141336093
 10
-3058.692059229591
 20
-1706.338509397141
 10
-3059.133809284813
 20
-1710.950443480345
 10
-3059.866106411495
 20
-1715.487811004241
 10
-3060.883054583756
 20
-1719.914079753456
 10
-3062.176465932865
 20
-1724.193612014624
 10
-3063.73592667116
 20
-1728.291951510303
 10
-3065.548880937715
 20
-1732.176100820658
 10
-3067.600731890784
 20
-1735.814787059286
 10
-3069.87495923296
 20
-1739.178713664106
 10
-3072.353252222903
 20
-1742.240796276051
 10
-3075.015657102679
 20
-1744.976380806407
 10
-3077.840737753654
 20
-1747.363441937033
 10
-3080.805748287554
 20
-1749.382760455274
 10
-3083.886816182959
 20
-1751.018077995761
 10
-3087.05913449281
 20
-1752.25622794321
 10
-3090.297161575369
 20
-1753.087241442262
 10
-3093.5748267405
 20
-1753.504427660855
 10
-3096.865740155526
 20
-1753.504427660855
 10
-3100.143405320658
 20
-1753.087241442262
 10
-3103.381432403216
 20
-1752.25622794321
 10
-3106.553750713068
 20
-1751.018077995761
 10
-3109.634818608472
 20
-1749.382760455274
 10
-3112.599829142372
 20
-1747.363441937033
 10
-3115.424909793347
 20
-1744.976380806407
 10
-3118.087314673124
 20
-1742.240796276051
 10
-3120.565607663067
 20
-1739.178713664106
 10
-3122.839835005242
 20
-1735.814787059286
 10
-3124.891685958312
 20
-1732.176100820658
 10
-3126.704640224866
 20
-1728.291951510303
 10
-3128.264100963161
 20
-1724.193612014624
 10
-3129.55751231227
 20
-1719.914079753456
 10
-3130.574460484531
 20
-1715.487811004241
 10
-3131.306757611214
 20
-1710.950443480345
 10
-3131.748507666435
 20
-1706.338509397141
 10
-3131.896153938498
 20
-1701.689141336093
  0
LWPOLYLINE
  5
CF
100
AcDbEntity
  8
PISTOLPORT
  6
CONTINUOUS
 62
     7
100
AcDbPolyline
 90
       36
 70
     0
 43
0.0
 10
-3062.260346727693
 20
-1724.438297260404
 10
-3062.912187997294
 20
-1724.281808570832
 10
-3063.558993061512
 20
-1724.087980788299
 10
-3064.199692940121
 20
-1723.857134253625
 10
-3064.833228742998
 20
-1723.589650488838
 10
-3065.458553420139
 20
-1723.285971566629
 10
-3066.074633492139
 20
-1722.94659937973
 10
-3066.680450758238
 20
-1722.572094811436
 10
-3067.275003979089
 20
-1722.163076808626
 10
-3067.857310531543
 20
-1721.720221358827
 10
-3068.426408032609
 20
-1721.244260373001
 10
-3068.981355930027
 20
-1720.735980475909
 10
-3069.521237056684
 20
-1720.196221706054
 10
-3070.04515914646
 20
-1719.625876127337
 10
-3070.552256308872
 20
-1719.025886354738
 10
-3071.04169046013
 20
-1718.39724399645
 10
-3071.512652708265
 20
-1717.740988015035
 10
-3071.964364689963
 20
-1717.058203010324
 10
-3072.396079856998
 20
-1716.350017426895
 10
-3072.807084710048
 20
-1715.617601689072
 10
-3073.196699977906
 20
-1714.862166266563
 10
-3073.564281740108
 20
-1714.084959673907
 10
-3073.909222491154
 20
-1713.287266407037
 10
-3074.230952144537
 20
-1712.470404820388
 10
-3074.528938974929
 20
-1711.635724948041
 10
-3074.802690496963
 20
-1710.784606272506
 10
-3075.051754279175
 20
-1709.918455444846
 10
-3075.275718691736
 20
-1709.038703959888
 10
-3075.474213586764
 20
-1708.146805790379
 10
-3075.646910910056
 20
-1707.244234983998
 10
-3075.793525243282
 20
-1706.33248322718
 10
-3075.913814275685
 20
-1705.413057379795
 10
-3076.007579204565
 20
-1704.487476984746
 10
-3076.074665063824
 20
-1703.55727175661
 10
-3076.114960980098
 20
-1702.623979053468
 10
-3076.128400355978
 20
-1701.689141336093
  0
LWPOLYLINE
  5
D0
100
AcDbEntity
  8
PISTOLPORT
  6
CONTINUOUS
 62
     7
100
AcDbPolyline
 90
       36
 70
     0
 43
0.0
 10
-3061.539818525875
 20
-1722.219399925014
 10
-3061.993648410036
 20
-1721.882461142966
 10
-3062.439744970251
 20
-1721.525464520714
 10
-3062.877665102875
 20
-1721.148764659742
 10
-3063.306973825837
 20
-1720.752735732584
 10
-3063.727244710703
 20
-1720.337771111158
 10
-3064.138060306243
 20
-1719.904282976034
 10
-3064.539012553073
 20
-1719.452701907018
 10
-3064.929703188988
 20
-1718.983476455463
 10
-3065.309744144544
 20
-1718.497072698727
 10
-3065.678757928532
 20
-1717.993973777221
 10
-3066.036378002934
 20
-1717.47467941451
 10
-3066.382249146984
 20
-1716.939705420942
 10
-3066.716027810043
 20
-1716.389583181304
 10
-3067.037382452805
 20
-1715.824859126992
 10
-3067.34599387664
 20
-1715.246094193253
 10
-3067.641555540639
 20
-1714.653863262013
 10
-3067.9237738661
 20
-1714.048754590848
 10
-3068.192368528133
 20
-1713.431369228678
 10
-3068.447072734114
 20
-1712.802320418744
 10
-3068.687633488686
 20
-1712.162232989489
 10
-3068.913811845042
 20
-1711.511742733911
 10
-3069.125383142287
 20
-1710.851495778042
 10
-3069.322137228581
 20
-1710.182147939157
 10
-3069.50387866989
 20
-1709.504364074351
 10
-3069.670426944097
 20
-1708.81881742015
 10
-3069.821616620322
 20
-1708.126188923786
 10
-3069.957297523244
 20
-1707.427166566823
 10
-3070.077334882256
 20
-1706.722444681784
 10
-3070.181609465346
 20
-1706.012723262485
 10
-3070.270017697521
 20
-1705.298707268732
 10
-3070.342471763696
 20
-1704.581105926092
 10
-3070.398899695907
 20
-1703.860632021427
 10
-3070.439245444803
 20
-1703.13800119489
 10
-3070.46346893532
 20
-1702.413931229084
 10
-3070.471546106484
 20
-1701.689141336093
  0
LINE
  5
D1
100
AcDbEntity
  8
PISTOLPORT
  6
CONTINUOUS
 62
     7
100
AcDbLine
 10
-3088.385738144591
 20
-1851.500098639299
 30
0.0
 11
-3104.948436788237
 21
-1842.346944010113
 31
0.0
  0
LINE
  5
D2
100
AcDbEntity
  8
PISTOLPORT
  6
CONTINUOUS
 62
     7
100
AcDbLine
 10
-3033.701993484787
 20
-1864.189141336093
 30
0.0
 11
-3040.773061296651
 21
-1864.189141336094
 31
0.0
  0
LINE
  5
D3
100
AcDbEntity
  8
PISTOLPORT
  6
CONTINUOUS
 62
     7
100
AcDbLine
 10
-2954.506033991891
 20
-1656.689141336094
 30
0.0
 11
-2956.627354335452
 21
-1656.689141336094
 31
0.0
  0
LWPOLYLINE
  5
D4
100
AcDbEntity
  8
PISTOLPORT
  6
CONTINUOUS
 62
     7
100
AcDbPolyline
 90
       36
 70
     1
 43
0.0
 10
-2993.750460347744
 20
-1549.285330768427
 10
-2993.992167517243
 20
-1553.192414765933
 10
-2994.709944875698
 20
-1556.980783993255
 10
-2995.881983121286
 20
-1560.535330768428
 10
-2997.472670464999
 20
-1563.748051986375
 10
-2999.433674676819
 20
-1566.521330738605
 10
-3001.705411636094
 20
-1568.770902353578
 10
-3004.218855764862
 20
-1570.42841473611
 10
-3006.897637335141
 20
-1571.443505211202
 10
-3009.66036292444
 20
-1571.785330768428
 10
-3012.423088513743
 20
-1571.443505211202
 10
-3015.101870084023
 20
-1570.42841473611
 10
-3017.61531421279
 20
-1568.770902353578
 10
-3019.887051172062
 20
-1566.521330738605
 10
-3021.848055383886
 20
-1563.748051986375
 10
-3023.438742727596
 20
-1560.535330768428
 10
-3024.610780973189
 20
-1556.980783993255
 10
-3025.328558331644
 20
-1553.192414765933
 10
-3025.57026550114
 20
-1549.285330768427
 10
-3025.328558331644
 20
-1545.378246770921
 10
-3024.610780973189
 20
-1541.589877543599
 10
-3023.438742727596
 20
-1538.035330768427
 10
-3021.848055383886
 20
-1534.82260955048
 10
-3019.887051172062
 20
-1532.049330798251
 10
-3017.61531421279
 20
-1529.799759183277
 10
-3015.101870084023
 20
-1528.142246800744
 10
-3012.423088513743
 20
-1527.127156325652
 10
-3009.66036292444
 20
-1526.785330768427
 10
-3006.897637335141
 20
-1527.127156325652
 10
-3004.218855764862
 20
-1528.142246800744
 10
-3001.705411636094
 20
-1529.799759183277
 10
-2999.433674676819
 20
-1532.049330798251
 10
-2997.472670464999
 20
-1534.82260955048
 10
-2995.881983121286
 20
-1538.035330768427
 10
-2994.709944875698
 20
-1541.589877543599
 10
-2993.992167517243
 20
-1545.378246770921
  0
LWPOLYLINE
  5
D5
100
AcDbEntity
  8
PISTOLPORT
  6
CONTINUOUS
 62
     7
100
AcDbPolyline
 90
       36
 70
     0
 43
0.0
 10
-3007.539042580885
 20
-1526.785330768427
 10
-3006.112889909188
 20
-1526.875909153534
 10
-3004.69821978024
 20
-1527.146915024957
 10
-3003.306422286107
 20
-1527.59616640277
 10
-3001.948703361847
 20
-1528.220046179033
 10
-3000.635994561909
 20
-1529.013531240623
 10
-2999.378865045697
 20
-1529.970232912385
 10
-2998.18743648089
 20
-1531.082448394991
 10
-2997.071301549747
 20
-1532.341222783346
 10
-2996.039446714452
 20
-1533.736421166222
 10
-2995.100179863424
 20
-1535.256810226605
 10
-2994.26106342106
 20
-1536.890148685755
 10
-2993.528853459568
 20
-1538.623285862785
 10
-2992.909445303023
 20
-1540.442267556215
 10
-2992.407826061695
 20
-1542.332448394991
 10
-2992.02803447877
 20
-1544.278609754411
 10
-2991.773128412754
 20
-1546.26508228753
 10
-2991.645160217417
 20
-1548.27587208554
 10
-2991.645160217417
 20
-1550.294789451314
 10
-2991.773128412754
 20
-1552.305579249325
 10
-2992.02803447877
 20
-1554.292051782445
 10
-2992.407826061695
 20
-1556.238213141864
 10
-2992.909445303023
 20
-1558.128393980641
 10
-2993.528853459568
 20
-1559.94737567407
 10
-2994.26106342106
 20
-1561.6805128511
 10
-2995.100179863424
 20
-1563.313851310249
 10
-2996.039446714452
 20
-1564.834240370632
 10
-2997.071301549747
 20
-1566.229438753509
 10
-2998.18743648089
 20
-1567.488213141864
 10
-2999.378865045697
 20
-1568.60042862447
 10
-3000.635994561909
 20
-1569.557130296233
 10
-3001.948703361847
 20
-1570.350615357822
 10
-3003.306422286107
 20
-1570.974495134085
 10
-3004.69821978024
 20
-1571.423746511897
 10
-3006.112889909188
 20
-1571.694752383321
 10
-3007.539042580885
 20
-1571.785330768428
  0
LINE
  5
D6
100
AcDbEntity
  8
PISTOLPORT
  6
CONTINUOUS
 62
     7
100
AcDbLine
 10
-3007.539042580885
 20
-1526.785330768427
 30
0.0
 11
-3009.66036292444
 21
-1526.785330768427
 31
0.0
  0
LINE
  5
D7
100
AcDbEntity
  8
PISTOLPORT
  6
CONTINUOUS
 62
     7
100
AcDbLine
 10
-3007.539042580885
 20
-1571.785330768427
 30
0.0
 11
-3009.66036292444
 21
-1571.785330768427
 31
0.0
  0
LWPOLYLINE
  5
D8
100
AcDbEntity
  8
PISTOLPORT
  6
CONTINUOUS
 62
     7
100
AcDbPolyline
 90
       36
 70
     0
 43
0.0
 10
-3113.605059758863
 20
-1526.785330768427
 10
-3112.178907087169
 20
-1526.875909153534
 10
-3110.76423695822
 20
-1527.146915024957
 10
-3109.372439464087
 20
-1527.59616640277
 10
-3108.014720539824
 20
-1528.220046179033
 10
-3106.702011739892
 20
-1529.013531240623
 10
-3105.444882223678
 20
-1529.970232912385
 10
-3104.253453658873
 20
-1531.082448394991
 10
-3103.137318727728
 20
-1532.341222783346
 10
-3102.105463892435
 20
-1533.736421166222
 10
-3101.166197041401
 20
-1535.256810226605
 10
-3100.327080599041
 20
-1536.890148685755
 10
-3099.594870637548
 20
-1538.623285862785
 10
-3098.975462481003
 20
-1540.442267556215
 10
-3098.473843239675
 20
-1542.332448394991
 10
-3098.094051656747
 20
-1544.278609754411
 10
-3097.839145590735
 20
-1546.26508228753
 10
-3097.711177395394
 20
-1548.27587208554
 10
-3097.711177395394
 20
-1550.294789451314
 10
-3097.839145590735
 20
-1552.305579249325
 10
-3098.094051656747
 20
-1554.292051782445
 10
-3098.473843239675
 20
-1556.238213141864
 10
-3098.975462481003
 20
-1558.128393980641
 10
-3099.594870637548
 20
-1559.94737567407
 10
-3100.327080599041
 20
-1561.6805128511
 10
-3101.166197041401
 20
-1563.313851310249
 10
-3102.105463892435
 20
-1564.834240370632
 10
-3103.137318727728
 20
-1566.229438753509
 10
-3104.253453658873
 20
-1567.488213141864
 10
-3105.444882223678
 20
-1568.60042862447
 10
-3106.702011739892
 20
-1569.557130296233
 10
-3108.014720539824
 20
-1570.350615357822
 10
-3109.372439464087
 20
-1570.974495134085
 10
-3110.76423695822
 20
-1571.423746511897
 10
-3112.178907087169
 20
-1571.694752383321
 10
-3113.605059758863
 20
-1571.785330768428
  0
LINE
  5
D9
100
AcDbEntity
  8
PISTOLPORT
  6
CONTINUOUS
 62
     7
100
AcDbLine
 10
-3113.605059758863
 20
-1526.785330768427
 30
0.0
 11
-3115.726380102427
 21
-1526.785330768427
 31
0.0
  0
LINE
  5
DA
100
AcDbEntity
  8
PISTOLPORT
  6
CONTINUOUS
 62
     7
100
AcDbLine
 10
-3113.605059758863
 20
-1571.785330768427
 30
0.0
 11
-3115.726380102427
 21
-1571.785330768427
 31
0.0
  0
LWPOLYLINE
  5
DB
100
AcDbEntity
  8
PISTOLPORT
  6
CONTINUOUS
 62
     7
100
AcDbPolyline
 90
       36
 70
     0
 43
0.0
 10
-3131.896153938498
 20
-1656.689141336093
 10
-3131.748507666435
 20
-1652.039773275045
 10
-3131.306757611214
 20
-1647.427839191842
 10
-3130.574460484531
 20
-1642.890471667945
 10
-3129.55751231227
 20
-1638.464202918731
 10
-3128.264100963161
 20
-1634.184670657562
 10
-3126.704640224866
 20
-1630.086331161883
 10
-3124.891685958312
 20
-1626.202181851527
 10
-3122.839835005242
 20
-1622.5634956129
 10
-3120.565607663067
 20
-1619.199569008081
 10
-3118.087314673121
 20
-1616.137486396135
 10
-3115.424909793347
 20
-1613.401901865779
 10
-3112.599829142372
 20
-1611.014840735153
 10
-3109.634818608472
 20
-1608.995522216913
 10
-3106.553750713068
 20
-1607.360204676426
 10
-3103.381432403216
 20
-1606.122054728977
 10
-3100.143405320658
 20
-1605.291041229924
 10
-3096.865740155526
 20
-1604.873855011332
 10
-3093.5748267405
 20
-1604.873855011332
 10
-3090.297161575369
 20
-1605.291041229924
 10
-3087.05913449281
 20
-1606.122054728977
 10
-3083.886816182959
 20
-1607.360204676426
 10
-3080.805748287554
 20
-1608.995522216913
 10
-3077.840737753654
 20
-1611.014840735154
 10
-3075.015657102679
 20
-1613.401901865779
 10
-3072.353252222903
 20
-1616.137486396136
 10
-3069.87495923296
 20
-1619.199569008081
 10
-3067.600731890784
 20
-1622.563495612901
 10
-3065.548880937715
 20
-1626.202181851528
 10
-3063.73592667116
 20
-1630.086331161884
 10
-3062.176465932865
 20
-1634.184670657563
 10
-3060.883054583756
 20
-1638.464202918731
 10
-3059.866106411495
 20
-1642.890471667946
 10
-3059.133809284813
 20
-1647.427839191842
 10
-3058.692059229591
 20
-1652.039773275046
 10
-3058.544412957528
 20
-1656.689141336093
  0
LWPOLYLINE
  5
DC
100
AcDbEntity
  8
PISTOLPORT
  6
CONTINUOUS
 62
     7
100
AcDbPolyline
 90
       36
 70
     0
 43
0.0
 10
-3076.128400355978
 20
-1656.689141336093
 10
-3076.114960980098
 20
-1655.754303618722
 10
-3076.074665063827
 20
-1654.821010915584
 10
-3076.007579204565
 20
-1653.890805687453
 10
-3075.913814275688
 20
-1652.965225292408
 10
-3075.793525243282
 20
-1652.045799445026
 10
-3075.646910910059
 20
-1651.134047688213
 10
-3075.474213586769
 20
-1650.231476881836
 10
-3075.275718691745
 20
-1649.33957871233
 10
-3075.051754279184
 20
-1648.459827227375
 10
-3074.802690496975
 20
-1647.593676399718
 10
-3074.528938974943
 20
-1646.742557724188
 10
-3074.230952144555
 20
-1645.907877851843
 10
-3073.909222491174
 20
-1645.091016265197
 10
-3073.564281740128
 20
-1644.293322998329
 10
-3073.196699977931
 20
-1643.516116405674
 10
-3072.807084710077
 20
-1642.760680983168
 10
-3072.396079857027
 20
-1642.028265245346
 10
-3071.964364689998
 20
-1641.320079661918
 10
-3071.512652708303
 20
-1640.637294657209
 10
-3071.041690460174
 20
-1639.981038675794
 10
-3070.552256308918
 20
-1639.352396317506
 10
-3070.045159146509
 20
-1638.752406544907
 10
-3069.521237056735
 20
-1638.18206096619
 10
-3068.981355930085
 20
-1637.642302196334
 10
-3068.426408032673
 20
-1637.134022299241
 10
-3067.857310531609
 20
-1636.658061313413
 10
-3067.275003979159
 20
-1636.215205863612
 10
-3066.680450758313
 20
-1635.806187860799
 10
-3066.07463349222
 20
-1635.431683292503
 10
-3065.45855342022
 20
-1635.0923111056
 10
-3064.833228743084
 20
-1634.788632183387
 10
-3064.199692940213
 20
-1634.521148418598
 10
-3063.558993061607
 20
-1634.29030188392
 10
-3062.912187997392
 20
-1634.096474101381
 10
-3062.260346727794
 20
-1633.939985411804
  0
LWPOLYLINE
  5
DD
100
AcDbEntity
  8
PISTOLPORT
  6
CONTINUOUS
 62
     7
100
AcDbPolyline
 90
       36
 70
     0
 43
0.0
 10
-3070.471546106484
 20
-1656.689141336093
 10
-3070.46354254995
 20
-1655.967661022202
 10
-3070.439539757748
 20
-1655.246890816728
 10
-3070.399561354347
 20
-1654.52754012917
 10
-3070.343646688011
 20
-1653.810316971886
 10
-3070.271850792086
 20
-1653.095927263238
 10
-3070.184244330825
 20
-1652.385074132797
 10
-3070.08091352985
 20
-1651.6784572293
 10
-3069.961960091274
 20
-1650.97677203203
 10
-3069.827501093598
 20
-1650.280709166295
 10
-3069.677668876498
 20
-1649.59095372369
 10
-3069.512610910542
 20
-1648.908184587805
 10
-3069.33248965208
 20
-1648.233073766038
 10
-3069.137482383309
 20
-1647.566285728188
 10
-3068.927781037821
 20
-1646.908476752446
 10
-3068.703592011663
 20
-1646.260294279472
 10
-3068.465135960225
 20
-1645.622376275156
 10
-3068.212647581034
 20
-1644.995350602703
 10
-3067.946375382777
 20
-1644.379834404674
 10
-3067.666581440695
 20
-1643.776433495564
 10
-3067.373541138646
 20
-1643.18574176554
 10
-3067.067542898067
 20
-1642.608340595912
 10
-3066.748887894079
 20
-1642.04479828691
 10
-3066.417889759084
 20
-1641.495669498349
 10
-3066.074874274056
 20
-1640.961494703708
 10
-3065.72017904791
 20
-1640.442799658173
 10
-3065.354153185197
 20
-1639.940094881173
 10
-3064.977156942525
 20
-1639.453875153904
 10
-3064.589561373953
 20
-1638.984619032349
 10
-3064.191747965815
 20
-1638.532788376263
 10
-3063.784108261225
 20
-1638.098827894595
 10
-3063.367043474711
 20
-1637.683164707788
 10
-3062.940964097329
 20
-1637.286207927387
 10
-3062.506289492638
 20
-1636.908348253381
 10
-3062.063447483946
 20
-1636.549957589661
 10
-3061.612873933232
 20
-1636.211388677973
  0
LINE
  5
DE
100
AcDbEntity
  8
PISTOLPORT
  6
CONTINUOUS
 62
     7
100
AcDbLine
 10
-3088.385738144591
 20
-1506.878184032887
 30
0.0
 11
-3104.948436788237
 21
-1516.031338662075
 31
0.0
  0
LINE
  5
DF
100
AcDbEntity
  8
PISTOLPORT
  6
CONTINUOUS
 62
     7
100
AcDbLine
 10
-3040.773061341495
 20
-1494.189141336094
 30
0.0
 11
-3033.701993484787
 21
-1494.189141336094
 31
0.0
  0
LWPOLYLINE
  5
E0
100
AcDbEntity
  8
PISTOLPORT
  6
CONTINUOUS
 62
     7
100
AcDbPolyline
 90
       36
 70
     1
 43
0.0
 10
-3152.849486114719
 20
-1679.189141336093
 10
-3153.091193284218
 20
-1683.096225333599
 10
-3153.808970642673
 20
-1686.884594560922
 10
-3154.98100888826
 20
-1690.439141336094
 10
-3156.571696231973
 20
-1693.65186255404
 10
-3158.532700443794
 20
-1696.425141306271
 10
-3160.804437403069
 20
-1698.674712921243
 10
-3163.317881531837
 20
-1700.332225303776
 10
-3165.996663102115
 20
-1701.347315778868
 10
-3168.759388691416
 20
-1701.689141336093
 10
-3171.522114280719
 20
-1701.347315778868
 10
-3174.200895850997
 20
-1700.332225303776
 10
-3176.714339979765
 20
-1698.674712921243
 10
-3178.986076939037
 20
-1696.425141306271
 10
-3180.947081150861
 20
-1693.65186255404
 10
-3182.537768494571
 20
-1690.439141336094
 10
-3183.709806740164
 20
-1686.884594560922
 10
-3184.427584098619
 20
-1683.096225333599
 10
-3184.669291268114
 20
-1679.189141336093
 10
-3184.427584098619
 20
-1675.282057338588
 10
-3183.709806740164
 20
-1671.493688111266
 10
-3182.537768494571
 20
-1667.939141336094
 10
-3180.947081150861
 20
-1664.726420118147
 10
-3178.986076939037
 20
-1661.953141365917
 10
-3176.714339979765
 20
-1659.703569750944
 10
-3174.200895850997
 20
-1658.046057368411
 10
-3171.522114280719
 20
-1657.030966893319
 10
-3168.759388691416
 20
-1656.689141336094
 10
-3165.996663102115
 20
-1657.030966893319
 10
-3163.317881531837
 20
-1658.046057368411
 10
-3160.804437403069
 20
-1659.703569750944
 10
-3158.532700443794
 20
-1661.953141365917
 10
-3156.571696231973
 20
-1664.726420118147
 10
-3154.98100888826
 20
-1667.939141336093
 10
-3153.808970642673
 20
-1671.493688111266
 10
-3153.091193284218
 20
-1675.282057338588
  0
LWPOLYLINE
  5
E1
100
AcDbEntity
  8
PISTOLPORT
  6
CONTINUOUS
 62
     7
100
AcDbPolyline
 90
       36
 70
     0
 43
0.0
 10
-3166.63806834786
 20
-1656.689141336094
 10
-3165.211915676163
 20
-1656.779719721201
 10
-3163.797245547214
 20
-1657.050725592624
 10
-3162.405448053082
 20
-1657.499976970437
 10
-3161.047729128821
 20
-1658.1238567467
 10
-3159.735020328883
 20
-1658.917341808289
 10
-3158.477890812672
 20
-1659.874043480052
 10
-3157.286462247865
 20
-1660.986258962657
 10
-3156.170327316722
 20
-1662.245033351013
 10
-3155.138472481427
 20
-1663.640231733889
 10
-3154.199205630399
 20
-1665.160620794272
 10
-3153.360089188035
 20
-1666.793959253421
 10
-3152.627879226542
 20
-1668.527096430451
 10
-3152.008471069997
 20
-1670.34607812388
 10
-3151.50685182867
 20
-1672.236258962657
 10
-3151.127060245744
 20
-1674.182420322076
 10
-3150.872154179729
 20
-1676.168892855197
 10
-3150.744185984391
 20
-1678.179682653206
 10
-3150.744185984391
 20
-1680.19860001898
 10
-3150.872154179729
 20
-1682.20938981699
 10
-3151.127060245744
 20
-1684.195862350111
 10
-3151.50685182867
 20
-1686.14202370953
 10
-3152.008471069997
 20
-1688.032204548307
 10
-3152.627879226542
 20
-1689.851186241736
 10
-3153.360089188035
 20
-1691.584323418766
 10
-3154.199205630399
 20
-1693.217661877915
 10
-3155.138472481427
 20
-1694.738050938298
 10
-3156.170327316722
 20
-1696.133249321174
 10
-3157.286462247865
 20
-1697.39202370953
 10
-3158.477890812672
 20
-1698.504239192135
 10
-3159.735020328883
 20
-1699.460940863898
 10
-3161.047729128821
 20
-1700.254425925487
 10
-3162.405448053082
 20
-1700.87830570175
 10
-3163.797245547214
 20
-1701.327557079563
 10
-3165.211915676163
 20
-1701.598562950986
 10
-3166.63806834786
 20
-1701.689141336093
  0
LINE
  5
E2
100
AcDbEntity
  8
PISTOLPORT
  6
CONTINUOUS
 62
     7
100
AcDbLine
 10
-3166.63806834786
 20
-1701.689141336093
 30
0.0
 11
-3168.759388691416
 21
-1701.689141336093
 31
0.0
  0
LINE
  5
E3
100
AcDbEntity
  8
PISTOLPORT
  6
CONTINUOUS
 62
     7
100
AcDbLine
 10
-3166.63806834786
 20
-1656.689141336094
 30
0.0
 11
-3168.759388691416
 21
-1656.689141336094
 31
0.0
  0
ARC
  5
E4
100
AcDbEntity
  8
BIN
  6
CONTINUOUS
100
AcDbCircle
 10
-2213.45812730839
 20
-3993.444576414951
 30
0.0
 40
1695.0
100
AcDbArc
 50
69.98525841492481
 51
110.0147415850751
  0
LINE
  5
E5
100
AcDbEntity
  8
BIN
  6
CONTINUOUS
100
AcDbLine
 10
-3908.45812730839
 20
-1509.189141336096
 30
0.0
 11
-3761.050182430578
 21
-1914.189141336091
 31
0.0
  0
LINE
  5
E6
100
AcDbEntity
  8
BIN
100
AcDbLine
 10
-3802.459385961132
 20
-1509.189141336088
 30
0.0
 11
-3802.459385961132
 21
-1259.189141336092
 31
0.0
  0
LINE
  5
E7
100
AcDbEntity
  8
BIN
100
AcDbLine
 10
-3644.171644780465
 20
-1914.189141336091
 30
0.0
 11
-3802.459385961132
 21
-1509.189141336088
 31
0.0
  0
TEXT
  5
E9
100
AcDbEntity
  8
COMMENTS
100
AcDbText
 10
-3965.500903021535
 20
-2729.677517410797
 30
0.0
 40
49.50577318193771
  1
Based mostly on 
 41
0.6
  7
ARIAL
 11
-3965.500903021535
 21
-2729.677517410797
 31
0.0
100
AcDbText
 73
     1
  0
TEXT
  5
EA
100
AcDbEntity
  8
COMMENTS
100
AcDbText
 10
-3965.500903021535
 20
-2803.936177183704
 30
-74.25865977290657
 40
49.50577318193771
  1
photos of Tiger 321.
 41
0.6
  7
ARIAL
 11
-3965.500903021535
 21
-2803.936177183704
 31
-74.25865977290657
100
AcDbText
 73
     1
  0
ARC
  5
EB
100
AcDbEntity
  8
BIN
  6
CONTINUOUS
100
AcDbCircle
 10
-2788.458127308389
 20
-2414.908862533254
 30
0.0
 40
15.0
100
AcDbArc
 50
110.0147415850751
 51
179.9999999999986
  0
ARC
  5
EC
100
AcDbEntity
  8
BIN
  6
CONTINUOUS
100
AcDbCircle
 10
-1638.45812730839
 20
-2414.908862533254
 30
0.0
 40
15.0
100
AcDbArc
 50
0.000000000001374
 51
69.98525841492483
  0
LINE
  5
ED
100
AcDbEntity
  8
BIN
  6
CONTINUOUS
100
AcDbLine
 10
-1623.45812730839
 20
-1914.189141336094
 30
0.0
 11
-2803.45812730839
 21
-1914.189141336088
 31
0.0
  0
LINE
  5
EE
100
AcDbEntity
  8
BIN
  6
CONTINUOUS
100
AcDbLine
 10
-1623.45812730839
 20
-1259.189141336093
 30
0.0
 11
-2803.458127308392
 21
-1259.189141336091
 31
0.0
  0
LINE
  5
EF
100
AcDbEntity
  8
BIN
  6
CONTINUOUS
100
AcDbLine
 10
-1623.45812730839
 20
-1914.189141336094
 30
0.0
 11
-1623.45812730839
 21
-1259.189141336093
 31
0.0
  0
LINE
  5
F0
100
AcDbEntity
  8
BIN
  6
CONTINUOUS
100
AcDbLine
 10
-2803.458127308389
 20
-1914.189141336089
 30
0.0
 11
-2803.458127308391
 21
-1259.189141336091
 31
0.0
  0
LINE
  5
F1
100
AcDbEntity
  8
BIN
  6
CONTINUOUS
100
AcDbLine
 10
-1623.45812730839
 20
-1509.189141336172
 30
0.0
 11
-2803.45812730839
 21
-1509.189141336076
 31
0.0
  0
LINE
  5
F2
100
AcDbEntity
  8
BIN
100
AcDbLine
 10
-3708.010266323582
 20
-1304.189141336093
 30
0.0
 11
-3152.630090162825
 21
-1304.189141336093
 31
0.0
  0
LINE
  5
F3
100
AcDbEntity
  8
BIN
100
AcDbLine
 10
-3708.010266323582
 20
-1354.189141336092
 30
0.0
 11
-3152.630090162826
 21
-1354.189141336092
 31
0.0
  0
LINE
  5
F4
100
AcDbEntity
  8
BIN
100
AcDbLine
 10
-3528.010266323603
 20
-1814.18914133609
 30
0.0
 11
-3152.630090162813
 21
-1814.189141336093
 31
0.0
  0
LINE
  5
F5
100
AcDbEntity
  8
BIN
100
AcDbLine
 10
-3528.010266323597
 20
-1864.189141336092
 30
0.0
 11
-3152.630090162813
 21
-1864.189141336093
 31
0.0
  0
LINE
  5
F6
100
AcDbEntity
  8
AXES
  6
CONTINUOUS
100
AcDbLine
 10
-3308.010266323584
 20
-1887.983572207717
 30
0.0
 11
-3308.010266323583
 21
-1283.038153527028
 31
0.0
  0
LINE
  5
F7
100
AcDbEntity
  8
AXES
  6
CONTINUOUS
100
AcDbLine
 10
-3488.010266323584
 20
-1887.983572207717
 30
0.0
 11
-3488.010266323583
 21
-1283.038153527028
 31
0.0
  0
LINE
  5
F8
100
AcDbEntity
  8
AXES
  6
CONTINUOUS
100
AcDbLine
 10
-3668.010266323584
 20
-1391.775178150646
 30
0.0
 11
-3668.010266323582
 21
-1283.038153527028
 31
0.0
  0
LINE
  5
F9
100
AcDbEntity
  8
BIN
  6
CONTINUOUS
100
AcDbLine
 10
-3708.010266323575
 20
-1354.189141336093
 30
0.0
 11
-3708.010266323588
 21
-1304.189141336093
 31
0.0
  0
LINE
  5
FA
100
AcDbEntity
  8
BIN
  6
CONTINUOUS
100
AcDbLine
 10
-3528.010266323564
 20
-1864.189141336092
 30
0.0
 11
-3528.010266323603
 21
-1814.189141336092
 31
0.0
  0
LWPOLYLINE
  5
FB
100
AcDbEntity
  8
BIN
100
AcDbPolyline
 90
        6
 70
     1
 43
0.0
 10
-3658.51026632358
 20
-1323.704313778792
 10
-3668.010266323579
 20
-1318.219486221491
 10
-3677.51026632358
 20
-1323.704313778792
 10
-3677.51026632358
 20
-1334.673968893395
 10
-3668.010266323579
 20
-1340.158796450696
 10
-3658.51026632358
 20
-1334.673968893395
  0
LWPOLYLINE
  5
FC
100
AcDbEntity
  8
BIN
100
AcDbPolyline
 90
        6
 70
     1
 43
0.0
 10
-3478.510266323583
 20
-1323.704313778792
 10
-3488.010266323582
 20
-1318.219486221491
 10
-3497.510266323583
 20
-1323.704313778792
 10
-3497.510266323583
 20
-1334.673968893395
 10
-3488.010266323582
 20
-1340.158796450697
 10
-3478.510266323583
 20
-1334.673968893395
  0
LWPOLYLINE
  5
FD
100
AcDbEntity
  8
BIN
100
AcDbPolyline
 90
        6
 70
     1
 43
0.0
 10
-3298.510266323583
 20
-1323.704313778792
 10
-3308.010266323583
 20
-1318.219486221491
 10
-3317.510266323583
 20
-1323.704313778792
 10
-3317.510266323583
 20
-1334.673968893395
 10
-3308.010266323583
 20
-1340.158796450697
 10
-3298.510266323583
 20
-1334.673968893395
  0
LWPOLYLINE
  5
FE
100
AcDbEntity
  8
BIN
100
AcDbPolyline
 90
        6
 70
     1
 43
0.0
 10
-3298.510266323584
 20
-1833.704313778789
 10
-3308.010266323583
 20
-1828.219486221487
 10
-3317.510266323584
 20
-1833.704313778789
 10
-3317.510266323584
 20
-1844.673968893391
 10
-3308.010266323583
 20
-1850.158796450693
 10
-3298.510266323584
 20
-1844.673968893391
  0
LWPOLYLINE
  5
FF
100
AcDbEntity
  8
BIN
100
AcDbPolyline
 90
        6
 70
     1
 43
0.0
 10
-3478.510266323583
 20
-1833.704313778789
 10
-3488.010266323583
 20
-1828.219486221487
 10
-3497.510266323583
 20
-1833.704313778789
 10
-3497.510266323583
 20
-1844.673968893391
 10
-3488.010266323583
 20
-1850.158796450693
 10
-3478.510266323583
 20
-1844.673968893391
  0
LINE
  5
100
100
AcDbEntity
  8
BIN
  6
CONTINUOUS
100
AcDbLine
 10
-2811.458127308391
 20
-2990.140036407282
 30
0.0
 11
-2811.458127308389
 21
-2498.892437399875
 31
0.0
  0
LINE
  5
101
100
AcDbEntity
  8
BIN
100
AcDbLine
 10
-2803.45812730839
 20
-2498.892437399759
 30
0.0
 11
-2811.458127308389
 21
-2498.892437399759
 31
0.0
  0
LINE
  5
102
100
AcDbEntity
  8
BIN
  6
CONTINUOUS
100
AcDbLine
 10
-1623.45812730839
 20
-2994.695358643042
 30
0.0
 11
-1623.45812730839
 21
-2414.908862533254
 31
0.0
  0
LINE
  5
103
100
AcDbEntity
  8
BIN
  6
CONTINUOUS
100
AcDbLine
 10
-1615.458127308389
 20
-2990.140036407282
 30
0.0
 11
-1615.45812730839
 21
-2498.892437399875
 31
0.0
  0
LINE
  5
104
100
AcDbEntity
  8
BIN
100
AcDbLine
 10
-1623.458127308389
 20
-2498.892437399759
 30
0.0
 11
-1615.45812730839
 21
-2498.892437399759
 31
0.0
  0
LINE
  5
105
100
AcDbEntity
  8
BIN
100
AcDbLine
 10
-2821.458127308419
 20
-2909.862092514317
 30
0.0
 11
-2821.458127308408
 21
-2887.922782285199
 31
0.0
  0
LINE
  5
106
100
AcDbEntity
  8
BIN
100
AcDbLine
 10
-2811.458127308393
 20
-2909.862092514316
 30
0.0
 11
-2811.458127308391
 21
-2887.922782285198
 31
0.0
  0
LINE
  5
107
100
AcDbEntity
  8
BIN
100
AcDbLine
 10
-2821.458127308408
 20
-2887.922782285166
 30
0.0
 11
-2811.458127308391
 21
-2887.922782285164
 31
0.0
  0
LINE
  5
108
100
AcDbEntity
  8
BIN
100
AcDbLine
 10
-2821.458127308407
 20
-2893.407609842455
 30
0.0
 11
-2811.458127308391
 21
-2893.407609842458
 31
0.0
  0
LINE
  5
109
100
AcDbEntity
  8
BIN
100
AcDbLine
 10
-2821.458127308407
 20
-2904.377264957062
 30
0.0
 11
-2811.458127308391
 21
-2904.377264957061
 31
0.0
  0
LINE
  5
10A
100
AcDbEntity
  8
BIN
100
AcDbLine
 10
-2821.458127308408
 20
-2909.862092514371
 30
0.0
 11
-2811.458127308391
 21
-2909.86209251437
 31
0.0
  0
LINE
  5
10B
100
AcDbEntity
  8
BIN
100
AcDbLine
 10
-2821.458127308419
 20
-2729.862092514317
 30
0.0
 11
-2821.458127308408
 21
-2707.922782285199
 31
0.0
  0
LINE
  5
10C
100
AcDbEntity
  8
BIN
100
AcDbLine
 10
-2811.458127308393
 20
-2729.862092514316
 30
0.0
 11
-2811.458127308391
 21
-2707.922782285198
 31
0.0
  0
LINE
  5
10D
100
AcDbEntity
  8
BIN
100
AcDbLine
 10
-2821.458127308408
 20
-2707.922782285166
 30
0.0
 11
-2811.458127308391
 21
-2707.922782285165
 31
0.0
  0
LINE
  5
10E
100
AcDbEntity
  8
BIN
100
AcDbLine
 10
-2821.458127308407
 20
-2713.407609842454
 30
0.0
 11
-2811.458127308391
 21
-2713.407609842458
 31
0.0
  0
LINE
  5
10F
100
AcDbEntity
  8
BIN
100
AcDbLine
 10
-2821.458127308407
 20
-2724.377264957062
 30
0.0
 11
-2811.458127308391
 21
-2724.377264957061
 31
0.0
  0
LINE
  5
110
100
AcDbEntity
  8
BIN
100
AcDbLine
 10
-2821.458127308408
 20
-2729.862092514371
 30
0.0
 11
-2811.458127308391
 21
-2729.86209251437
 31
0.0
  0
LINE
  5
111
100
AcDbEntity
  8
BIN
100
AcDbLine
 10
-2821.458127308419
 20
-2549.862092514317
 30
0.0
 11
-2821.458127308408
 21
-2527.922782285199
 31
0.0
  0
LINE
  5
112
100
AcDbEntity
  8
BIN
100
AcDbLine
 10
-2811.458127308393
 20
-2549.862092514316
 30
0.0
 11
-2811.458127308391
 21
-2527.922782285198
 31
0.0
  0
LINE
  5
113
100
AcDbEntity
  8
BIN
100
AcDbLine
 10
-2821.458127308408
 20
-2527.922782285166
 30
0.0
 11
-2811.458127308391
 21
-2527.922782285164
 31
0.0
  0
LINE
  5
114
100
AcDbEntity
  8
BIN
100
AcDbLine
 10
-2821.458127308407
 20
-2533.407609842455
 30
0.0
 11
-2811.458127308391
 21
-2533.407609842458
 31
0.0
  0
LINE
  5
115
100
AcDbEntity
  8
BIN
100
AcDbLine
 10
-2821.458127308407
 20
-2544.377264957062
 30
0.0
 11
-2811.458127308391
 21
-2544.377264957061
 31
0.0
  0
LINE
  5
116
100
AcDbEntity
  8
BIN
100
AcDbLine
 10
-2821.458127308408
 20
-2549.862092514372
 30
0.0
 11
-2811.458127308391
 21
-2549.86209251437
 31
0.0
  0
LINE
  5
117
100
AcDbEntity
  8
BIN
100
AcDbLine
 10
-1605.45812730836
 20
-2909.862092514317
 30
0.0
 11
-1605.458127308372
 21
-2887.922782285199
 31
0.0
  0
LINE
  5
118
100
AcDbEntity
  8
BIN
100
AcDbLine
 10
-1615.458127308387
 20
-2909.862092514316
 30
0.0
 11
-1615.458127308389
 21
-2887.922782285198
 31
0.0
  0
LINE
  5
119
100
AcDbEntity
  8
BIN
100
AcDbLine
 10
-1605.458127308372
 20
-2887.922782285166
 30
0.0
 11
-1615.458127308389
 21
-2887.922782285164
 31
0.0
  0
LINE
  5
11A
100
AcDbEntity
  8
BIN
100
AcDbLine
 10
-1605.458127308373
 20
-2893.407609842455
 30
0.0
 11
-1615.458127308389
 21
-2893.407609842458
 31
0.0
  0
LINE
  5
11B
100
AcDbEntity
  8
BIN
100
AcDbLine
 10
-1605.458127308373
 20
-2904.377264957062
 30
0.0
 11
-1615.458127308389
 21
-2904.377264957061
 31
0.0
  0
LINE
  5
11C
100
AcDbEntity
  8
BIN
100
AcDbLine
 10
-1605.458127308372
 20
-2909.862092514371
 30
0.0
 11
-1615.458127308389
 21
-2909.86209251437
 31
0.0
  0
LINE
  5
11D
100
AcDbEntity
  8
BIN
100
AcDbLine
 10
-1605.45812730836
 20
-2729.862092514317
 30
0.0
 11
-1605.458127308372
 21
-2707.922782285199
 31
0.0
  0
LINE
  5
11E
100
AcDbEntity
  8
BIN
100
AcDbLine
 10
-1615.458127308387
 20
-2729.862092514316
 30
0.0
 11
-1615.458127308389
 21
-2707.922782285198
 31
0.0
  0
LINE
  5
11F
100
AcDbEntity
  8
BIN
100
AcDbLine
 10
-1605.458127308372
 20
-2707.922782285166
 30
0.0
 11
-1615.458127308389
 21
-2707.922782285165
 31
0.0
  0
LINE
  5
120
100
AcDbEntity
  8
BIN
100
AcDbLine
 10
-1605.458127308373
 20
-2713.407609842454
 30
0.0
 11
-1615.458127308389
 21
-2713.407609842458
 31
0.0
  0
LINE
  5
121
100
AcDbEntity
  8
BIN
100
AcDbLine
 10
-1605.458127308373
 20
-2724.377264957062
 30
0.0
 11
-1615.458127308389
 21
-2724.377264957061
 31
0.0
  0
LINE
  5
122
100
AcDbEntity
  8
BIN
100
AcDbLine
 10
-1605.458127308372
 20
-2729.862092514371
 30
0.0
 11
-1615.458127308389
 21
-2729.86209251437
 31
0.0
  0
LINE
  5
123
100
AcDbEntity
  8
BIN
100
AcDbLine
 10
-1605.45812730836
 20
-2549.862092514317
 30
0.0
 11
-1605.458127308372
 21
-2527.922782285199
 31
0.0
  0
LINE
  5
124
100
AcDbEntity
  8
BIN
100
AcDbLine
 10
-1615.458127308387
 20
-2549.862092514316
 30
0.0
 11
-1615.458127308389
 21
-2527.922782285198
 31
0.0
  0
LINE
  5
125
100
AcDbEntity
  8
BIN
100
AcDbLine
 10
-1605.458127308372
 20
-2527.922782285166
 30
0.0
 11
-1615.458127308389
 21
-2527.922782285164
 31
0.0
  0
LINE
  5
126
100
AcDbEntity
  8
BIN
100
AcDbLine
 10
-1605.458127308373
 20
-2533.407609842455
 30
0.0
 11
-1615.458127308389
 21
-2533.407609842458
 31
0.0
  0
LINE
  5
127
100
AcDbEntity
  8
BIN
100
AcDbLine
 10
-1605.458127308373
 20
-2544.377264957062
 30
0.0
 11
-1615.458127308389
 21
-2544.377264957061
 31
0.0
  0
LINE
  5
128
100
AcDbEntity
  8
BIN
100
AcDbLine
 10
-1605.458127308372
 20
-2549.862092514372
 30
0.0
 11
-1615.458127308389
 21
-2549.86209251437
 31
0.0
  0
LINE
  5
129
100
AcDbEntity
  8
BIN
  6
CONTINUOUS
100
AcDbLine
 10
-3218.010266323582
 20
-1304.189141336093
 30
0.0
 11
-3218.010266323583
 21
-1259.189141336093
 31
0.0
  0
LINE
  5
12A
100
AcDbEntity
  8
BIN
  6
CONTINUOUS
100
AcDbLine
 10
-3218.010266323584
 20
-1914.189141336092
 30
0.0
 11
-3218.010266323577
 21
-1864.189141336093
 31
0.0
  0
LINE
  5
12B
100
AcDbEntity
  8
BIN
  6
CONTINUOUS
100
AcDbLine
 10
-3218.010266323584
 20
-1814.189141336093
 30
0.0
 11
-3218.010266323582
 21
-1354.189141336092
 31
0.0
  0
ARC
  5
12C
100
AcDbEntity
  8
BIN
100
AcDbCircle
 10
-2213.45812730839
 20
-3993.444576414951
 30
0.0
 40
1167.999999999999
100
AcDbArc
 50
120.7962270808317
 51
125.9401049867697
  0
LINE
  5
12D
100
AcDbEntity
  8
BIN
100
AcDbLine
 10
-2899.003128189299
 20
-3047.795565540834
 30
0.0
 11
-2894.307614484634
 21
-3054.27261356052
 31
0.0
  0
ARC
  5
12E
100
AcDbEntity
  8
BIN
100
AcDbCircle
 10
-2213.45812730839
 20
-3993.444576414951
 30
0.0
 40
1159.999999999999
100
AcDbArc
 50
120.5719981752587
 51
125.9401049867697
  0
ARC
  5
12F
100
AcDbEntity
  8
BIN
100
AcDbCircle
 10
-2213.45812730839
 20
-3993.444576414951
 30
0.0
 40
1167.999999999999
100
AcDbArc
 50
54.0598950132302
 51
59.2037729191682
  0
LINE
  5
130
100
AcDbEntity
  8
BIN
100
AcDbLine
 10
-1527.913126427481
 20
-3047.795565540834
 30
0.0
 11
-1532.608640132146
 21
-3054.27261356052
 31
0.0
  0
ARC
  5
131
100
AcDbEntity
  8
BIN
100
AcDbCircle
 10
-2213.45812730839
 20
-3993.444576414951
 30
0.0
 40
1159.999999999999
100
AcDbArc
 50
54.05989501323023
 51
59.42800182474126
  0
LINE
  5
132
100
AcDbEntity
  8
BIN
  6
CONTINUOUS
100
AcDbLine
 10
-2811.458127308391
 20
-1354.189141336087
 30
0.0
 11
-2811.458127308387
 21
-1304.189141336101
 31
0.0
  0
LINE
  5
133
100
AcDbEntity
  8
BIN
100
AcDbLine
 10
-2899.003128189299
 20
-1304.189141336093
 30
0.0
 11
-2803.458127308391
 21
-1304.189141336093
 31
0.0
  0
LINE
  5
134
100
AcDbEntity
  8
BIN
100
AcDbLine
 10
-2811.458127308391
 20
-1354.189141336092
 30
0.0
 11
-2803.458127308391
 21
-1354.189141336092
 31
0.0
  0
LINE
  5
135
100
AcDbEntity
  8
BIN
100
AcDbLine
 10
-2899.003128189303
 20
-1354.189141336078
 30
0.0
 11
-2803.458127308395
 21
-1354.189141336078
 31
0.0
  0
LINE
  5
136
100
AcDbEntity
  8
BIN
100
AcDbLine
 10
-2899.003128189299
 20
-1304.189141336093
 30
0.0
 11
-2899.003128189299
 21
-1354.189141336078
 31
0.0
  0
LINE
  5
137
100
AcDbEntity
  8
BIN
100
AcDbLine
 10
-2811.458127308383
 20
-1340.158796450653
 30
0.0
 11
-2811.458127308395
 21
-1318.219486221535
 31
0.0
  0
LINE
  5
138
100
AcDbEntity
  8
BIN
100
AcDbLine
 10
-2821.45812730841
 20
-1340.158796450652
 30
0.0
 11
-2821.458127308412
 21
-1318.219486221534
 31
0.0
  0
LINE
  5
139
100
AcDbEntity
  8
BIN
100
AcDbLine
 10
-2811.458127308395
 20
-1318.219486221502
 30
0.0
 11
-2821.458127308412
 21
-1318.219486221501
 31
0.0
  0
LINE
  5
13A
100
AcDbEntity
  8
BIN
100
AcDbLine
 10
-2811.458127308396
 20
-1323.704313778791
 30
0.0
 11
-2821.458127308412
 21
-1323.704313778794
 31
0.0
  0
LINE
  5
13B
100
AcDbEntity
  8
BIN
100
AcDbLine
 10
-2811.458127308396
 20
-1334.673968893398
 30
0.0
 11
-2821.458127308412
 21
-1334.673968893397
 31
0.0
  0
LINE
  5
13C
100
AcDbEntity
  8
BIN
100
AcDbLine
 10
-2811.458127308395
 20
-1340.158796450707
 30
0.0
 11
-2821.458127308412
 21
-1340.158796450706
 31
0.0
  0
LINE
  5
13D
100
AcDbEntity
  8
BIN
  6
CONTINUOUS
100
AcDbLine
 10
-1615.458127308389
 20
-1354.189141336087
 30
0.0
 11
-1615.458127308393
 21
-1304.189141336101
 31
0.0
  0
LINE
  5
13E
100
AcDbEntity
  8
BIN
100
AcDbLine
 10
-1527.913126427481
 20
-1304.189141336093
 30
0.0
 11
-1623.458127308389
 21
-1304.189141336093
 31
0.0
  0
LINE
  5
13F
100
AcDbEntity
  8
BIN
100
AcDbLine
 10
-1615.458127308389
 20
-1354.189141336092
 30
0.0
 11
-1623.458127308389
 21
-1354.189141336092
 31
0.0
  0
LINE
  5
140
100
AcDbEntity
  8
BIN
100
AcDbLine
 10
-1527.913126427477
 20
-1354.189141336078
 30
0.0
 11
-1623.458127308384
 21
-1354.189141336078
 31
0.0
  0
LINE
  5
141
100
AcDbEntity
  8
BIN
100
AcDbLine
 10
-1527.913126427481
 20
-1304.189141336093
 30
0.0
 11
-1527.913126427481
 21
-1354.189141336078
 31
0.0
  0
LINE
  5
142
100
AcDbEntity
  8
BIN
100
AcDbLine
 10
-1615.458127308397
 20
-1340.158796450653
 30
0.0
 11
-1615.458127308385
 21
-1318.219486221535
 31
0.0
  0
LINE
  5
143
100
AcDbEntity
  8
BIN
100
AcDbLine
 10
-1605.45812730837
 20
-1340.158796450652
 30
0.0
 11
-1605.458127308368
 21
-1318.219486221534
 31
0.0
  0
LINE
  5
144
100
AcDbEntity
  8
BIN
100
AcDbLine
 10
-1615.458127308385
 20
-1318.219486221502
 30
0.0
 11
-1605.458127308368
 21
-1318.219486221501
 31
0.0
  0
LINE
  5
145
100
AcDbEntity
  8
BIN
100
AcDbLine
 10
-1615.458127308384
 20
-1323.704313778791
 30
0.0
 11
-1605.458127308368
 21
-1323.704313778794
 31
0.0
  0
LINE
  5
146
100
AcDbEntity
  8
BIN
100
AcDbLine
 10
-1615.458127308384
 20
-1334.673968893398
 30
0.0
 11
-1605.458127308368
 21
-1334.673968893397
 31
0.0
  0
LINE
  5
147
100
AcDbEntity
  8
BIN
100
AcDbLine
 10
-1615.458127308385
 20
-1340.158796450707
 30
0.0
 11
-1605.458127308368
 21
-1340.158796450706
 31
0.0
  0
LINE
  5
148
100
AcDbEntity
  8
BIN
  6
CONTINUOUS
100
AcDbLine
 10
-2811.458127308391
 20
-1864.189141336084
 30
0.0
 11
-2811.458127308387
 21
-1814.189141336098
 31
0.0
  0
LINE
  5
149
100
AcDbEntity
  8
BIN
100
AcDbLine
 10
-2899.003128189299
 20
-1814.189141336089
 30
0.0
 11
-2803.458127308391
 21
-1814.189141336089
 31
0.0
  0
LINE
  5
14A
100
AcDbEntity
  8
BIN
100
AcDbLine
 10
-2811.458127308391
 20
-1864.189141336089
 30
0.0
 11
-2803.458127308391
 21
-1864.189141336089
 31
0.0
  0
LINE
  5
14B
100
AcDbEntity
  8
BIN
100
AcDbLine
 10
-2899.003128189303
 20
-1864.189141336075
 30
0.0
 11
-2803.458127308395
 21
-1864.189141336075
 31
0.0
  0
LINE
  5
14C
100
AcDbEntity
  8
BIN
100
AcDbLine
 10
-2899.003128189299
 20
-1814.189141336089
 30
0.0
 11
-2899.003128189299
 21
-1864.189141336075
 31
0.0
  0
LINE
  5
14D
100
AcDbEntity
  8
BIN
100
AcDbLine
 10
-2811.458127308383
 20
-1850.15879645065
 30
0.0
 11
-2811.458127308395
 21
-1828.219486221532
 31
0.0
  0
LINE
  5
14E
100
AcDbEntity
  8
BIN
100
AcDbLine
 10
-2821.45812730841
 20
-1850.158796450648
 30
0.0
 11
-2821.458127308412
 21
-1828.219486221531
 31
0.0
  0
LINE
  5
14F
100
AcDbEntity
  8
BIN
100
AcDbLine
 10
-2811.458127308395
 20
-1828.219486221499
 30
0.0
 11
-2821.458127308412
 21
-1828.219486221497
 31
0.0
  0
LINE
  5
150
100
AcDbEntity
  8
BIN
100
AcDbLine
 10
-2811.458127308396
 20
-1833.704313778787
 30
0.0
 11
-2821.458127308412
 21
-1833.704313778791
 31
0.0
  0
LINE
  5
151
100
AcDbEntity
  8
BIN
100
AcDbLine
 10
-2811.458127308396
 20
-1844.673968893395
 30
0.0
 11
-2821.458127308412
 21
-1844.673968893394
 31
0.0
  0
LINE
  5
152
100
AcDbEntity
  8
BIN
100
AcDbLine
 10
-2811.458127308395
 20
-1850.158796450704
 30
0.0
 11
-2821.458127308412
 21
-1850.158796450703
 31
0.0
  0
LINE
  5
153
100
AcDbEntity
  8
BIN
  6
CONTINUOUS
100
AcDbLine
 10
-1615.458127308389
 20
-1864.189141336084
 30
0.0
 11
-1615.458127308393
 21
-1814.189141336098
 31
0.0
  0
LINE
  5
154
100
AcDbEntity
  8
BIN
100
AcDbLine
 10
-1527.913126427481
 20
-1814.189141336089
 30
0.0
 11
-1623.458127308389
 21
-1814.189141336089
 31
0.0
  0
LINE
  5
155
100
AcDbEntity
  8
BIN
100
AcDbLine
 10
-1615.458127308389
 20
-1864.189141336089
 30
0.0
 11
-1623.458127308389
 21
-1864.189141336089
 31
0.0
  0
LINE
  5
156
100
AcDbEntity
  8
BIN
100
AcDbLine
 10
-1527.913126427477
 20
-1864.189141336075
 30
0.0
 11
-1623.458127308384
 21
-1864.189141336075
 31
0.0
  0
LINE
  5
157
100
AcDbEntity
  8
BIN
100
AcDbLine
 10
-1527.913126427481
 20
-1814.189141336089
 30
0.0
 11
-1527.913126427481
 21
-1864.189141336075
 31
0.0
  0
LINE
  5
158
100
AcDbEntity
  8
BIN
100
AcDbLine
 10
-1615.458127308397
 20
-1850.15879645065
 30
0.0
 11
-1615.458127308385
 21
-1828.219486221532
 31
0.0
  0
LINE
  5
159
100
AcDbEntity
  8
BIN
100
AcDbLine
 10
-1605.45812730837
 20
-1850.158796450648
 30
0.0
 11
-1605.458127308368
 21
-1828.219486221531
 31
0.0
  0
LINE
  5
15A
100
AcDbEntity
  8
BIN
100
AcDbLine
 10
-1615.458127308385
 20
-1828.219486221499
 30
0.0
 11
-1605.458127308368
 21
-1828.219486221497
 31
0.0
  0
LINE
  5
15B
100
AcDbEntity
  8
BIN
100
AcDbLine
 10
-1615.458127308384
 20
-1833.704313778787
 30
0.0
 11
-1605.458127308368
 21
-1833.704313778791
 31
0.0
  0
LINE
  5
15C
100
AcDbEntity
  8
BIN
100
AcDbLine
 10
-1615.458127308384
 20
-1844.673968893395
 30
0.0
 11
-1605.458127308368
 21
-1844.673968893394
 31
0.0
  0
LINE
  5
15D
100
AcDbEntity
  8
BIN
100
AcDbLine
 10
-1615.458127308385
 20
-1850.158796450704
 30
0.0
 11
-1605.458127308368
 21
-1850.158796450703
 31
0.0
  0
LINE
  5
15E
100
AcDbEntity
  8
BIN
100
AcDbLine
 10
-3159.107138182506
 20
-1304.189141336093
 30
0.0
 11
-3159.107138182506
 21
-1354.189141336092
 31
0.0
  0
LINE
  5
15F
100
AcDbEntity
  8
BIN
100
AcDbLine
 10
-3152.630090162821
 20
-1304.189141336093
 30
0.0
 11
-3152.630090162821
 21
-1354.189141336092
 31
0.0
  0
LINE
  5
160
100
AcDbEntity
  8
BIN
100
AcDbLine
 10
-3159.107138182506
 20
-1814.18914133609
 30
0.0
 11
-3159.107138182506
 21
-1864.189141336089
 31
0.0
  0
LINE
  5
161
100
AcDbEntity
  8
BIN
100
AcDbLine
 10
-3152.630090162821
 20
-1814.189141336089
 30
0.0
 11
-3152.630090162821
 21
-1864.189141336089
 31
0.0
  0
LINE
  5
162
100
AcDbEntity
  8
BIN
  6
CONTINUOUS
100
AcDbLine
 10
-2113.45812730839
 20
-2832.74435671996
 30
0.0
 11
-2113.45812730839
 21
-2682.744356719959
 31
0.0
  0
LINE
  5
163
100
AcDbEntity
  8
BIN
  6
CONTINUOUS
100
AcDbLine
 10
-2313.458127308389
 20
-2832.74435671996
 30
0.0
 11
-2313.458127308386
 21
-2682.744356719958
 31
0.0
  0
LINE
  5
164
100
AcDbEntity
  8
LID
100
AcDbLine
 10
-1621.458127308385
 20
-2583.892437399758
 30
0.0
 11
-2805.458127308389
 21
-2583.892437399758
 31
0.0
  0
LINE
  5
165
100
AcDbEntity
  8
BIN
100
AcDbLine
 10
-2113.45812730839
 20
-2682.744356719959
 30
0.0
 11
-2313.458127308386
 21
-2682.744356719959
 31
0.0
  0
LINE
  5
166
100
AcDbEntity
  8
LID
100
AcDbLine
 10
-3623.010266323597
 20
-1276.18914133609
 30
0.0
 11
-3623.010266323579
 21
-1251.189141336092
 31
0.0
  0
LINE
  5
167
100
AcDbEntity
  8
LID
  6
CONTINUOUS
100
AcDbLine
 10
-3623.01026632358
 20
-1251.189141336091
 30
0.0
 11
-3911.009007670849
 21
-1251.189141336092
 31
0.0
  0
LINE
  5
168
100
AcDbEntity
  8
LID
  6
CONTINUOUS
100
AcDbLine
 10
-3623.01026632358
 20
-1276.189141336091
 30
0.0
 11
-3911.009007670849
 21
-1276.189141336091
 31
0.0
  0
LINE
  5
169
100
AcDbEntity
  8
LID
  6
CONTINUOUS
100
AcDbLine
 10
-3911.009007670848
 20
-1251.189141336092
 30
0.0
 11
-3911.009007670849
 21
-1276.189141336091
 31
0.0
  0
LINE
  5
16A
100
AcDbEntity
  8
LID
100
AcDbLine
 10
-1621.458127308391
 20
-2583.892437399758
 30
0.0
 11
-1621.458127308391
 21
-2406.530905164999
 31
0.0
  0
ARC
  5
16B
100
AcDbEntity
  8
LID
100
AcDbCircle
 10
-2213.45812730839
 20
-3993.444576414951
 30
0.0
 40
1697.0
100
AcDbArc
 50
69.70054599994212
 51
110.2994540000578
  0
ARC
  5
16C
100
AcDbEntity
  8
LID
100
AcDbCircle
 10
-1626.45812730839
 20
-2406.530905164999
 30
0.0
 40
4.999999999999999
100
AcDbArc
 50
0.0000000000041729
 51
69.7005459999421
  0
LINE
  5
16D
100
AcDbEntity
  8
LID
100
AcDbLine
 10
-2805.45812730839
 20
-2583.892437399758
 30
0.0
 11
-2805.45812730839
 21
-2406.530905164999
 31
0.0
  0
ARC
  5
16E
100
AcDbEntity
  8
LID
100
AcDbCircle
 10
-2800.45812730839
 20
-2406.530905164999
 30
0.0
 40
4.999999999999999
100
AcDbArc
 50
110.2994540000578
 51
179.9999999999958
  0
LINE
  5
16F
100
AcDbEntity
  8
LID
  6
CONTINUOUS
100
AcDbLine
 10
-1621.458127308385
 20
-1251.189141336087
 30
0.0
 11
-2805.458127308392
 21
-1251.189141336092
 31
0.0
  0
LINE
  5
170
100
AcDbEntity
  8
LID
  6
CONTINUOUS
100
AcDbLine
 10
-1621.458127308385
 20
-1276.18914133609
 30
0.0
 11
-2805.458127308392
 21
-1276.189141336091
 31
0.0
  0
LINE
  5
171
100
AcDbEntity
  8
LID
100
AcDbLine
 10
-2805.458127308392
 20
-1276.189141336091
 30
0.0
 11
-2805.458127308392
 21
-1251.189141336092
 31
0.0
  0
LINE
  5
172
100
AcDbEntity
  8
LID
100
AcDbLine
 10
-1621.458127308388
 20
-1276.189141336091
 30
0.0
 11
-1621.458127308388
 21
-1251.189141336092
 31
0.0
  0
LWPOLYLINE
  5
173
100
AcDbEntity
  8
LID
100
AcDbPolyline
 90
        4
 70
     1
 43
0.0
 10
-2633.458127308389
 20
-2593.892437399758
 10
-2553.458127308389
 20
-2593.892437399758
 10
-2553.458127308389
 20
-2583.892437399757
 10
-2633.458127308389
 20
-2583.892437399757
  0
LWPOLYLINE
  5
174
100
AcDbEntity
  8
LID
100
AcDbPolyline
 90
        4
 70
     1
 43
0.0
 10
-1793.458127308391
 20
-2593.892437399758
 10
-1873.458127308391
 20
-2593.892437399758
 10
-1873.458127308391
 20
-2583.892437399757
 10
-1793.458127308391
 20
-2583.892437399757
  0
CIRCLE
  5
175
100
AcDbEntity
  8
LID
100
AcDbCircle
 10
-3618.010266323579
 20
-1254.189141336093
 30
0.0
 40
4.999999999999999
  0
LINE
  5
176
100
AcDbEntity
  8
BIN
  6
CONTINUOUS
100
AcDbLine
 10
-2238.45812730839
 20
-1279.189141336092
 30
0.0
 11
-2238.45812730839
 21
-1339.189141336092
 31
0.0
  0
LINE
  5
177
100
AcDbEntity
  8
BIN
  6
CONTINUOUS
100
AcDbLine
 10
-2188.458127308389
 20
-1279.189141336082
 30
0.0
 11
-2238.458127308396
 21
-1279.189141336101
 31
0.0
  0
LINE
  5
178
100
AcDbEntity
  8
BIN
  6
CONTINUOUS
100
AcDbLine
 10
-2188.458127308391
 20
-1339.189141336097
 30
0.0
 11
-2238.458127308395
 21
-1339.189141336103
 31
0.0
  0
LINE
  5
179
100
AcDbEntity
  8
BIN
  6
CONTINUOUS
100
AcDbLine
 10
-2188.458127308388
 20
-1279.189141336092
 30
0.0
 11
-2188.458127308389
 21
-1339.189141336092
 31
0.0
  0
LINE
  5
17A
100
AcDbEntity
  8
BIN
100
AcDbLine
 10
-2210.45812730839
 20
-1321.189141336092
 30
0.0
 11
-2210.45812730839
 21
-1297.189141336092
 31
0.0
  0
LINE
  5
17B
100
AcDbEntity
  8
BIN
100
AcDbLine
 10
-2216.45812730839
 20
-1297.189141336092
 30
0.0
 11
-2216.45812730839
 21
-1321.189141336092
 31
0.0
  0
ARC
  5
17C
100
AcDbEntity
  8
BIN
100
AcDbCircle
 10
-2213.45812730839
 20
-1321.189141336092
 30
0.0
 40
3.0
100
AcDbArc
 50
180.0
 51
0.0
  0
ARC
  5
17D
100
AcDbEntity
  8
BIN
100
AcDbCircle
 10
-2213.45812730839
 20
-1297.189141336092
 30
0.0
 40
3.0
100
AcDbArc
 50
0.0
 51
180.0
  0
LINE
  5
17E
100
AcDbEntity
  8
BIN
  6
CONTINUOUS
100
AcDbLine
 10
-3908.458127308392
 20
-1279.189141336081
 30
0.0
 11
-3912.45812730839
 21
-1279.189141336087
 31
0.0
  0
LINE
  5
17F
100
AcDbEntity
  8
BIN
  6
CONTINUOUS
100
AcDbLine
 10
-3908.458127308391
 20
-1339.189141336099
 30
0.0
 11
-3912.45812730839
 21
-1339.189141336097
 31
0.0
  0
LINE
  5
180
100
AcDbEntity
  8
BIN
  6
CONTINUOUS
100
AcDbLine
 10
-3912.45812730839
 20
-1279.189141336104
 30
0.0
 11
-3912.458127308391
 21
-1339.189141336142
 31
0.0
  0
ARC
  5
181
100
AcDbEntity
  8
BIN
100
AcDbCircle
 10
-3912.458127308391
 20
-1309.189141336123
 30
0.0
 40
8.999999999999998
100
AcDbArc
 50
90.00000000000005
 51
270.0
  0
ARC
  5
182
100
AcDbEntity
  8
BIN
100
AcDbCircle
 10
-3912.458127308391
 20
-1309.189141336123
 30
0.0
 40
15.0
100
AcDbArc
 50
90.00000000000005
 51
270.0
  0
TEXT
  5
183
100
AcDbEntity
  8
COMMENTS
100
AcDbText
 10
-1046.035298783767
 20
-1343.27540559468
 30
0.0
 40
23.22950816791624
  1
Drg version 1.0 / 13 Feb 2014
 41
0.6000000000000001
  7
ARIAL
 11
-1046.035298783767
 21
-1343.27540559468
 31
0.0
100
AcDbText
 73
     1
  0
LINE
  5
184
100
AcDbEntity
  8
ARMOUR
  6
CONTINUOUS
100
AcDbLine
 10
-2253.458165455363
 20
-2830.444545897373
 30
0.0
 11
-2260.458134937785
 21
-2830.444545897373
 31
0.0
  0
LWPOLYLINE
  5
185
100
AcDbEntity
  8
ARMOUR
  6
CONTINUOUS
100
AcDbPolyline
 90
        4
 70
     1
 43
0.0
 10
-2256.458119678996
 20
-2770.444545897372
 10
-2256.458119678996
 20
-2758.444576414951
 10
-2170.458134937785
 20
-2758.444576414951
 10
-2170.458134937785
 20
-2770.444545897372
  0
LINE
  5
186
100
AcDbEntity
  8
ARMOUR
  6
CONTINUOUS
100
AcDbLine
 10
-2243.458127308391
 20
-2820.444545897373
 30
0.0
 11
-2243.458127308391
 21
-2770.444545897372
 31
0.0
  0
ARC
  5
187
100
AcDbEntity
  8
ARMOUR
  6
CONTINUOUS
100
AcDbCircle
 10
-2253.458165455363
 20
-2820.444545897373
 30
0.0
 40
10.0
100
AcDbArc
 50
310.761413514683
 51
0.0000006832453803
  0
ARC
  5
188
100
AcDbEntity
  8
ARMOUR
  6
CONTINUOUS
100
AcDbCircle
 10
-2270.070256519816
 20
-2846.41805663956
 30
0.0
 40
18.6426043510437
100
AcDbArc
 50
90.00000000000005
 51
144.799140845968
  0
LINE
  5
189
100
AcDbEntity
  8
ARMOUR
  6
CONTINUOUS
100
AcDbLine
 10
-2166.458119678996
 20
-2830.444545897373
 30
0.0
 11
-2173.458127308391
 21
-2830.444545897373
 31
0.0
  0
LINE
  5
18A
100
AcDbEntity
  8
ARMOUR
  6
CONTINUOUS
100
AcDbLine
 10
-2183.45812730839
 20
-2820.444545897373
 30
0.0
 11
-2183.45812730839
 21
-2770.444545897372
 31
0.0
  0
ARC
  5
18B
100
AcDbEntity
  8
ARMOUR
  6
CONTINUOUS
100
AcDbCircle
 10
-2173.458127308391
 20
-2820.444545897373
 30
0.0
 40
10.0
100
AcDbArc
 50
180.0000025044782
 51
235.9797470741663
  0
ARC
  5
18C
100
AcDbEntity
  8
ARMOUR
  6
CONTINUOUS
100
AcDbCircle
 10
-2157.88481645634
 20
-2854.382648619541
 30
0.0
 40
25.42701721191406
100
AcDbArc
 50
47.17058382873405
 51
88.79455322747238
  0
LINE
  5
18D
100
AcDbEntity
  8
ARMOUR
100
AcDbLine
 10
-2270.070256519816
 20
-2827.775452288517
 30
0.0
 11
-2157.88481645634
 21
-2828.955631407627
 31
0.0
  0
TEXT
  5
18E
100
AcDbEntity
  8
COMMENTS
100
AcDbText
 10
-1460.874394813787
 20
-2590.370676734377
 30
0.0
 40
24.75288659096885
  1
The hinges are very
 41
0.6
  7
ARIAL
 11
-1460.874394813787
 21
-2590.370676734377
 31
0.0
100
AcDbText
 73
     1
  0
TEXT
  5
18F
100
AcDbEntity
  8
COMMENTS
100
AcDbText
 10
-1460.874394813787
 20
-2627.500006620831
 30
-37.12932988645328
 40
24.75288659096885
  1
hard to see in photos.
 41
0.6
  7
ARIAL
 11
-1460.874394813787
 21
-2627.500006620831
 31
-37.12932988645328
100
AcDbText
 73
     1
  0
TEXT
  5
190
100
AcDbEntity
  8
COMMENTS
100
AcDbText
 10
-3677.833233625545
 20
-1177.654952865044
 30
0.0
 40
24.75288659096885
  1
Side view
 41
0.6
  7
ARIAL
 11
-3677.833233625545
 21
-1177.654952865044
 31
0.0
100
AcDbText
 73
     1
  0
TEXT
  5
191
100
AcDbEntity
  8
COMMENTS
100
AcDbText
 10
-2423.602195059031
 20
-1177.654952865044
 30
0.0
 40
24.75288659096885
  1
Rear view
 41
0.6
  7
ARIAL
 11
-2423.602195059031
 21
-1177.654952865044
 31
0.0
100
AcDbText
 73
     1
  0
TEXT
  5
192
100
AcDbEntity
  8
COMMENTS
100
AcDbText
 10
-3075.648912356607
 20
-2132.711615259729
 30
0.0
 40
24.75288659096885
  1
Turret outline
 41
0.6
  7
ARIAL
 11
-3075.648912356607
 21
-2132.711615259729
 31
0.0
100
AcDbText
 73
     1
  0
ENDSEC
  0
SECTION
  2
OBJECTS
  0
DICTIONARY
  5
C
100
AcDbDictionary
  3
ACAD_GROUP
350
D
  3
ACAD_MLINESTYLE
350
1B
  3
ACDBVARIABLEDICTIONARY
350
1E
  0
DICTIONARY
  5
D
102
{ACAD_REACTORS
330
C
102
}
100
AcDbDictionary
  0
DICTIONARY
  5
1B
102
{ACAD_REACTORS
330
C
102
}
100
AcDbDictionary
  3
STANDARD
350
1C
  0
DICTIONARY
  5
1E
102
{ACAD_REACTORS
330
C
102
}
100
AcDbDictionary
  3
DIMADEC
350
1F
  0
MLINESTYLE
  5
1C
102
{ACAD_REACTORS
330
1B
102
}
100
AcDbMlineStyle
  2
STANDARD
 70
     0
  3

 62
   256
 51
90.0
 52
90.0
 71
     2
 49
0.5
 62
   256
  6
BYLAYER
 49
-0.5
 62
   256
  6
BYLAYER
  0
DICTIONARYVAR
  5
1F
102
{ACAD_REACTORS
330
1E
102
}
100
DictionaryVariables
280
     0
  1
-1
  0
ENDSEC
  0
EOF
