  0
SECTION
  2
HEADER
  9
$ACADVER
  1
AC1014
  9
$ACADMAINTVER
 70
     5
  9
$DWGCODEPAGE
  3
ANSI_1252
  9
$INSBASE
 10
0.0
 20
0.0
 30
0.0
  9
$EXTMIN
 10
1.000000000000000E+20
 20
1.000000000000000E+20
 30
1.000000000000000E+20
  9
$EXTMAX
 10
-1.000000000000000E+20
 20
-1.000000000000000E+20
 30
-1.000000000000000E+20
  9
$LIMMIN
 10
0.0
 20
0.0
  9
$LIMMAX
 10
12.0
 20
9.0
  9
$ORTHOMODE
 70
     0
  9
$REGENMODE
 70
     1
  9
$FILLMODE
 70
     1
  9
$QTEXTMODE
 70
     0
  9
$MIRRTEXT
 70
     1
  9
$DRAGMODE
 70
     2
  9
$LTSCALE
 40
1.0
  9
$OSMODE
 70
     0
  9
$ATTMODE
 70
     0
  9
$TEXTSIZE
 40
9.999999999999998
  9
$TRACEWID
 40
0.05
  9
$TEXTSTYLE
  7
STANDARD
  9
$CLAYER
  8
0
  9
$CELTYPE
  6
BYLAYER
  9
$CECOLOR
 62
   256
  9
$CELTSCALE
 40
1.0
  9
$DELOBJ
 70
     1
  9
$DISPSILH
 70
     0
  9
$DIMSCALE
 40
1.0
  9
$DIMASZ
 40
0.18
  9
$DIMEXO
 40
0.0625
  9
$DIMDLI
 40
0.38
  9
$DIMRND
 40
0.0
  9
$DIMDLE
 40
0.0
  9
$DIMEXE
 40
0.18
  9
$DIMTP
 40
0.0
  9
$DIMTM
 40
0.0
  9
$DIMTXT
 40
0.984251968503937
  9
$DIMCEN
 40
0.09
  9
$DIMTSZ
 40
0.0
  9
$DIMTOL
 70
     0
  9
$DIMLIM
 70
     0
  9
$DIMTIH
 70
     1
  9
$DIMTOH
 70
     1
  9
$DIMSE1
 70
     0
  9
$DIMSE2
 70
     0
  9
$DIMTAD
 70
     0
  9
$DIMZIN
 70
     0
  9
$DIMBLK
  1

  9
$DIMASO
 70
     1
  9
$DIMSHO
 70
     1
  9
$DIMPOST
  1

  9
$DIMAPOST
  1

  9
$DIMALT
 70
     0
  9
$DIMALTD
 70
     2
  9
$DIMALTF
 40
25.4
  9
$DIMLFAC
 40
1.0
  9
$DIMTOFL
 70
     0
  9
$DIMTVP
 40
0.0
  9
$DIMTIX
 70
     0
  9
$DIMSOXD
 70
     0
  9
$DIMSAH
 70
     0
  9
$DIMBLK1
  1

  9
$DIMBLK2
  1

  9
$DIMSTYLE
  2
STANDARD
  9
$DIMCLRD
 70
     0
  9
$DIMCLRE
 70
     0
  9
$DIMCLRT
 70
     0
  9
$DIMTFAC
 40
1.0
  9
$DIMGAP
 40
0.09
  9
$DIMJUST
 70
     0
  9
$DIMSD1
 70
     0
  9
$DIMSD2
 70
     0
  9
$DIMTOLJ
 70
     1
  9
$DIMTZIN
 70
     0
  9
$DIMALTZ
 70
     0
  9
$DIMALTTZ
 70
     0
  9
$DIMFIT
 70
     3
  9
$DIMUPT
 70
     0
  9
$DIMUNIT
 70
     4
  9
$DIMDEC
 70
    -1
  9
$DIMTDEC
 70
     4
  9
$DIMALTU
 70
     2
  9
$DIMALTTD
 70
     2
  9
$DIMTXSTY
  7
STANDARD
  9
$DIMAUNIT
 70
     1
  9
$LUNITS
 70
     2
  9
$LUPREC
 70
     0
  9
$SKETCHINC
 40
0.1
  9
$FILLETRAD
 40
6.0
  9
$AUNITS
 70
     0
  9
$AUPREC
 70
     2
  9
$MENU
  1
.
  9
$ELEVATION
 40
0.0
  9
$PELEVATION
 40
0.0
  9
$THICKNESS
 40
0.0
  9
$LIMCHECK
 70
     0
  9
$BLIPMODE
 70
     0
  9
$CHAMFERA
 40
4.999999999999999
  9
$CHAMFERB
 40
4.999999999999999
  9
$CHAMFERC
 40
0.0
  9
$CHAMFERD
 40
0.0
  9
$SKPOLY
 70
     0
  9
$TDCREATE
 40
0.0000000000
  9
$TDUPDATE
 40
0.0000000000
  9
$TDINDWG
 40
0.0000000000
  9
$TDUSRTIMER
 40
0.0000000000
  9
$USRTIMER
 70
     1
  9
$ANGBASE
 50
0.0
  9
$ANGDIR
 70
     0
  9
$PDMODE
 70
     0
  9
$PDSIZE
 40
0.0
  9
$PLINEWID
 40
0.0
  9
$COORDS
 70
     1
  9
$SPLFRAME
 70
     0
  9
$SPLINETYPE
 70
     6
  9
$SPLINESEGS
 70
     8
  9
$ATTDIA
 70
     0
  9
$ATTREQ
 70
     1
  9
$HANDLING
 70
     1
  9
$HANDSEED
  5
17E
  9
$SURFTAB1
 70
     6
  9
$SURFTAB2
 70
     6
  9
$SURFTYPE
 70
     6
  9
$SURFU
 70
     6
  9
$SURFV
 70
     6
  9
$UCSNAME
  2

  9
$UCSORG
 10
0.0
 20
0.0
 30
0.0
  9
$UCSXDIR
 10
1.0
 20
0.0
 30
0.0
  9
$UCSYDIR
 10
0.0
 20
1.0
 30
0.0
  9
$PUCSNAME
  2

  9
$PUCSORG
 10
0.0
 20
0.0
 30
0.0
  9
$PUCSXDIR
 10
1.0
 20
0.0
 30
0.0
  9
$PUCSYDIR
 10
0.0
 20
1.0
 30
0.0
  9
$USERI1
 70
     0
  9
$USERI2
 70
     0
  9
$USERI3
 70
     0
  9
$USERI4
 70
     0
  9
$USERI5
 70
     0
  9
$USERR1
 40
0.0
  9
$USERR2
 40
0.0
  9
$USERR3
 40
0.0
  9
$USERR4
 40
0.0
  9
$USERR5
 40
0.0
  9
$WORLDVIEW
 70
     1
  9
$SHADEDGE
 70
     3
  9
$SHADEDIF
 70
    70
  9
$TILEMODE
 70
     1
  9
$MAXACTVP
 70
    48
  9
$PINSBASE
 10
0.0
 20
0.0
 30
0.0
  9
$PLIMCHECK
 70
     0
  9
$PEXTMIN
 10
1.000000000000000E+20
 20
1.000000000000000E+20
 30
1.000000000000000E+20
  9
$PEXTMAX
 10
-1.000000000000000E+20
 20
-1.000000000000000E+20
 30
-1.000000000000000E+20
  9
$PLIMMIN
 10
0.0
 20
0.0
  9
$PLIMMAX
 10
12.0
 20
9.0
  9
$UNITMODE
 70
     0
  9
$VISRETAIN
 70
     1
  9
$PLINEGEN
 70
     0
  9
$PSLTSCALE
 70
     1
  9
$TREEDEPTH
 70
  3020
  9
$PICKSTYLE
 70
     1
  9
$CMLSTYLE
  2
STANDARD
  9
$CMLJUST
 70
     0
  9
$CMLSCALE
 40
1.0
  9
$PROXYGRAPHICS
 70
     1
  9
$MEASUREMENT
 70
     0
  0
ENDSEC
  0
SECTION
  2
CLASSES
  0
CLASS
  1
DICTIONARYVAR
  2
AcDbDictionaryVar
  3
"AutoCAD"
 90
        0
280
     0
281
     0
  0
CLASS
  1
LWPOLYLINE
  2
AcDbPolyline
  3
"AutoCAD"
 90
        0
280
     0
281
     1
  0
ENDSEC
  0
SECTION
  2
TABLES
  0
TABLE
  2
VPORT
  5
8
100
AcDbSymbolTable
 70
     1
  0
VPORT
  5
11
100
AcDbSymbolTableRecord
100
AcDbViewportTableRecord
  2
*ACTIVE
 70
     0
 10
0.0
 20
0.0
 11
1.0
 21
1.0
 12
3.6
 22
4.5
 13
0.0
 23
0.0
 14
1.0
 24
1.0
 15
0.0
 25
0.0
 16
0.0
 26
0.0
 36
1.0
 17
0.0
 27
0.0
 37
0.0
 40
15.0
 41
0.8
 42
50.0
 43
0.0
 44
0.0
 50
0.0
 51
0.0
 71
     0
 72
   100
 73
     1
 74
     1
 75
     0
 76
     0
 77
     0
 78
     0
  0
ENDTAB
  0
TABLE
  2
LTYPE
  5
5
100
AcDbSymbolTable
 70
    40
  0
LTYPE
  5
12
100
AcDbSymbolTableRecord
100
AcDbLinetypeTableRecord
  2
BYBLOCK
 70
     0
  3

 72
    65
 73
     0
 40
0.0
  0
LTYPE
  5
13
100
AcDbSymbolTableRecord
100
AcDbLinetypeTableRecord
  2
BYLAYER
 70
     0
  3

 72
    65
 73
     0
 40
0.0
  0
LTYPE
  5
14
100
AcDbSymbolTableRecord
100
AcDbLinetypeTableRecord
  2
CONTINUOUS
 70
     0
  3
Solid line
 72
    65
 73
     0
 40
0.0
  0
LTYPE
  5
20
100
AcDbSymbolTableRecord
100
AcDbLinetypeTableRecord
  2
HIDDEN
 70
     0
  3
_ _ _ _ _ _ _ _ _ _ _ _ _ _ 
 72
    65
 73
     2
 40
9.524999999999998
 49
6.349999999999999
 74
     0
 49
-3.174999999999999
 74
     0
  0
LTYPE
  5
21
100
AcDbSymbolTableRecord
100
AcDbLinetypeTableRecord
  2
DASHED
 70
     0
  3
__ __ __ __ __ __ __ __ __ 
 72
    65
 73
     2
 40
19.04999999999999
 49
12.7
 74
     0
 49
-6.349999999999999
 74
     0
  0
LTYPE
  5
22
100
AcDbSymbolTableRecord
100
AcDbLinetypeTableRecord
  2
CENTER
 70
     0
  3
____ _ ____ _ ____ _ ____ _ 
 72
    65
 73
     4
 40
50.8
 49
31.75
 74
     0
 49
-6.349999999999999
 74
     0
 49
6.349999999999999
 74
     0
 49
-6.349999999999999
 74
     0
  0
LTYPE
  5
23
100
AcDbSymbolTableRecord
100
AcDbLinetypeTableRecord
  2
PHANTOM
 70
     0
  3
_____ _ _ _____ _ _ _____ _ _ 
 72
    65
 73
     6
 40
63.50000000000001
 49
31.75
 74
     0
 49
-6.349999999999999
 74
     0
 49
6.349999999999999
 74
     0
 49
-6.349999999999999
 74
     0
 49
6.349999999999999
 74
     0
 49
-6.349999999999999
 74
     0
  0
LTYPE
  5
24
100
AcDbSymbolTableRecord
100
AcDbLinetypeTableRecord
  2
DOT
 70
     0
  3
...........................
 72
    65
 73
     2
 40
6.349999999999999
 49
0.0
 74
     0
 49
-6.349999999999999
 74
     0
  0
LTYPE
  5
25
100
AcDbSymbolTableRecord
100
AcDbLinetypeTableRecord
  2
DASHDOT
 70
     0
  3
__ . __ . __ . __ . __ . __ . 
 72
    65
 73
     4
 40
25.4
 49
12.7
 74
     0
 49
-6.349999999999999
 74
     0
 49
0.0
 74
     0
 49
-6.349999999999999
 74
     0
  0
LTYPE
  5
26
100
AcDbSymbolTableRecord
100
AcDbLinetypeTableRecord
  2
DIVIDE
 70
     0
  3
__ . . __ . . __ . . __ . . 
 72
    65
 73
     6
 40
31.75
 49
12.7
 74
     0
 49
-6.349999999999999
 74
     0
 49
0.0
 74
     0
 49
-6.349999999999999
 74
     0
 49
0.0
 74
     0
 49
-6.349999999999999
 74
     0
  0
LTYPE
  5
27
100
AcDbSymbolTableRecord
100
AcDbLinetypeTableRecord
  2
BORDER
 70
     0
  3
__ __ . __ __ . __ __ . __ __ .
 72
    65
 73
     6
 40
44.44999999999999
 49
12.7
 74
     0
 49
-6.349999999999999
 74
     0
 49
12.7
 74
     0
 49
-6.349999999999999
 74
     0
 49
0.0
 74
     0
 49
-6.349999999999999
 74
     0
  0
LTYPE
  5
28
100
AcDbSymbolTableRecord
100
AcDbLinetypeTableRecord
  2
BORDER2
 70
     0
  3
Border (.5x) __.__.__.__.__.__.
 72
    65
 73
     6
 40
0.875
 49
0.25
 74
     0
 49
-0.125
 74
     0
 49
0.25
 74
     0
 49
-0.125
 74
     0
 49
0.0
 74
     0
 49
-0.125
 74
     0
  0
LTYPE
  5
29
100
AcDbSymbolTableRecord
100
AcDbLinetypeTableRecord
  2
BORDERX2
 70
     0
  3
Border (2x) ____  ____  .  ____
 72
    65
 73
     6
 40
3.5
 49
1.0
 74
     0
 49
-0.5
 74
     0
 49
1.0
 74
     0
 49
-0.5
 74
     0
 49
0.0
 74
     0
 49
-0.5
 74
     0
  0
LTYPE
  5
2A
100
AcDbSymbolTableRecord
100
AcDbLinetypeTableRecord
  2
CENTER2
 70
     0
  3
Center (.5x) ___ _ ___ _ ___ _ 
 72
    65
 73
     4
 40
1.125
 49
0.75
 74
     0
 49
-0.125
 74
     0
 49
0.125
 74
     0
 49
-0.125
 74
     0
  0
LTYPE
  5
2B
100
AcDbSymbolTableRecord
100
AcDbLinetypeTableRecord
  2
CENTERX2
 70
     0
  3
Center (2x) ________  __  _____
 72
    65
 73
     4
 40
4.0
 49
2.5
 74
     0
 49
-0.5
 74
     0
 49
0.5
 74
     0
 49
-0.5
 74
     0
  0
LTYPE
  5
2C
100
AcDbSymbolTableRecord
100
AcDbLinetypeTableRecord
  2
DASHDOT2
 70
     0
  3
Dash dot (.5x) _._._._._._._._.
 72
    65
 73
     4
 40
0.5
 49
0.25
 74
     0
 49
-0.125
 74
     0
 49
0.0
 74
     0
 49
-0.125
 74
     0
  0
LTYPE
  5
2D
100
AcDbSymbolTableRecord
100
AcDbLinetypeTableRecord
  2
DASHDOTX2
 70
     0
  3
Dash dot (2x) ____  .  ____  . 
 72
    65
 73
     4
 40
2.0
 49
1.0
 74
     0
 49
-0.5
 74
     0
 49
0.0
 74
     0
 49
-0.5
 74
     0
  0
LTYPE
  5
2E
100
AcDbSymbolTableRecord
100
AcDbLinetypeTableRecord
  2
DASHED2
 70
     0
  3
Dashed (.5x) _ _ _ _ _ _ _ _ _ 
 72
    65
 73
     2
 40
0.375
 49
0.25
 74
     0
 49
-0.125
 74
     0
  0
LTYPE
  5
2F
100
AcDbSymbolTableRecord
100
AcDbLinetypeTableRecord
  2
DASHEDX2
 70
     0
  3
Dashed (2x) ____  ____  ____  _
 72
    65
 73
     2
 40
1.5
 49
1.0
 74
     0
 49
-0.5
 74
     0
  0
LTYPE
  5
30
100
AcDbSymbolTableRecord
100
AcDbLinetypeTableRecord
  2
DIVIDE2
 70
     0
  3
Divide (.5x) __..__..__..__..__
 72
    65
 73
     6
 40
0.625
 49
0.25
 74
     0
 49
-0.125
 74
     0
 49
0.0
 74
     0
 49
-0.125
 74
     0
 49
0.0
 74
     0
 49
-0.125
 74
     0
  0
LTYPE
  5
31
100
AcDbSymbolTableRecord
100
AcDbLinetypeTableRecord
  2
DIVIDEX2
 70
     0
  3
Divide (2x) ________  .  .  ___
 72
    65
 73
     6
 40
2.5
 49
1.0
 74
     0
 49
-0.5
 74
     0
 49
0.0
 74
     0
 49
-0.5
 74
     0
 49
0.0
 74
     0
 49
-0.5
 74
     0
  0
LTYPE
  5
32
100
AcDbSymbolTableRecord
100
AcDbLinetypeTableRecord
  2
DOT2
 70
     0
  3
Dot (.5x) .....................
 72
    65
 73
     2
 40
0.125
 49
0.0
 74
     0
 49
-0.125
 74
     0
  0
LTYPE
  5
33
100
AcDbSymbolTableRecord
100
AcDbLinetypeTableRecord
  2
DOTX2
 70
     0
  3
Dot (2x) .  .  .  .  .  .  .  .
 72
    65
 73
     2
 40
0.5
 49
0.0
 74
     0
 49
-0.5
 74
     0
  0
LTYPE
  5
34
100
AcDbSymbolTableRecord
100
AcDbLinetypeTableRecord
  2
HIDDEN2
 70
     0
  3
Hidden (.5x) _ _ _ _ _ _ _ _ _ 
 72
    65
 73
     2
 40
0.1875
 49
0.125
 74
     0
 49
-0.0625
 74
     0
  0
LTYPE
  5
35
100
AcDbSymbolTableRecord
100
AcDbLinetypeTableRecord
  2
HIDDENX2
 70
     0
  3
Hidden (2x) ____ ____ ____ ____
 72
    65
 73
     2
 40
0.75
 49
0.5
 74
     0
 49
-0.25
 74
     0
  0
LTYPE
  5
36
100
AcDbSymbolTableRecord
100
AcDbLinetypeTableRecord
  2
PHANTOM2
 70
     0
  3
Phantom (.5x) ___ _ _ ___ _ _ _
 72
    65
 73
     6
 40
1.25
 49
0.625
 74
     0
 49
-0.125
 74
     0
 49
0.125
 74
     0
 49
-0.125
 74
     0
 49
0.125
 74
     0
 49
-0.125
 74
     0
  0
LTYPE
  5
37
100
AcDbSymbolTableRecord
100
AcDbLinetypeTableRecord
  2
PHANTOMX2
 70
     0
  3
Phantom (2x) ____________    __
 72
    65
 73
     6
 40
5.0
 49
2.5
 74
     0
 49
-0.5
 74
     0
 49
0.5
 74
     0
 49
-0.5
 74
     0
 49
0.5
 74
     0
 49
-0.5
 74
     0
  0
LTYPE
  5
38
100
AcDbSymbolTableRecord
100
AcDbLinetypeTableRecord
  2
DOTS
 70
     0
  3
Dots - - - - - - - - - - - - - 
 72
    65
 73
     2
 40
0.1
 49
0.05
 74
     0
 49
-0.05
 74
     0
  0
LTYPE
  5
39
100
AcDbSymbolTableRecord
100
AcDbLinetypeTableRecord
  2
ACAD_ISO02W100
 70
     0
  3
__ __ __ __ __ __ __ __ __ __ _
 72
    65
 73
     2
 40
15.0
 49
12.0
 74
     0
 49
-3.0
 74
     0
  0
LTYPE
  5
3A
100
AcDbSymbolTableRecord
100
AcDbLinetypeTableRecord
  2
ACAD_ISO03W100
 70
     0
  3
__    __    __    __    __    _
 72
    65
 73
     2
 40
30.0
 49
12.0
 74
     0
 49
-18.0
 74
     0
  0
LTYPE
  5
3B
100
AcDbSymbolTableRecord
100
AcDbLinetypeTableRecord
  2
ACAD_ISO04W100
 70
     0
  3
____ . ____ . ____ . ____ . ___
 72
    65
 73
     4
 40
30.5
 49
24.0
 74
     0
 49
-3.0
 74
     0
 49
0.5
 74
     0
 49
-3.0
 74
     0
  0
LTYPE
  5
3C
100
AcDbSymbolTableRecord
100
AcDbLinetypeTableRecord
  2
ACAD_ISO05W100
 70
     0
  3
____ .. ____ .. ____ .. ____ ..
 72
    65
 73
     6
 40
34.0
 49
24.0
 74
     0
 49
-3.0
 74
     0
 49
0.5
 74
     0
 49
-3.0
 74
     0
 49
0.5
 74
     0
 49
-3.0
 74
     0
  0
LTYPE
  5
3D
100
AcDbSymbolTableRecord
100
AcDbLinetypeTableRecord
  2
ACAD_ISO06W100
 70
     0
  3
____ ... ____ ... ____ ... ____
 72
    65
 73
     6
 40
34.0
 49
24.0
 74
     0
 49
-3.0
 74
     0
 49
0.5
 74
     0
 49
-3.0
 74
     0
 49
0.5
 74
     0
 49
-3.0
 74
     0
  0
LTYPE
  5
3E
100
AcDbSymbolTableRecord
100
AcDbLinetypeTableRecord
  2
ACAD_ISO07W100
 70
     0
  3
. . . . . . . . . . . . . . . .
 72
    65
 73
     2
 40
3.5
 49
0.5
 74
     0
 49
-3.0
 74
     0
  0
LTYPE
  5
3F
100
AcDbSymbolTableRecord
100
AcDbLinetypeTableRecord
  2
ACAD_ISO08W100
 70
     0
  3
____ __ ____ __ ____ __ ____ __
 72
    65
 73
     4
 40
36.0
 49
24.0
 74
     0
 49
-3.0
 74
     0
 49
6.0
 74
     0
 49
-3.0
 74
     0
  0
LTYPE
  5
40
100
AcDbSymbolTableRecord
100
AcDbLinetypeTableRecord
  2
ACAD_ISO09W100
 70
     0
  3
____ __ __ ____ __ __ ____ __ _
 72
    65
 73
     6
 40
45.0
 49
24.0
 74
     0
 49
-3.0
 74
     0
 49
6.0
 74
     0
 49
-3.0
 74
     0
 49
6.0
 74
     0
 49
-3.0
 74
     0
  0
LTYPE
  5
41
100
AcDbSymbolTableRecord
100
AcDbLinetypeTableRecord
  2
ACAD_ISO10W100
 70
     0
  3
__ . __ . __ . __ . __ . __ . _
 72
    65
 73
     4
 40
18.5
 49
12.0
 74
     0
 49
-3.0
 74
     0
 49
0.5
 74
     0
 49
-3.0
 74
     0
  0
LTYPE
  5
42
100
AcDbSymbolTableRecord
100
AcDbLinetypeTableRecord
  2
ACAD_ISO11W100
 70
     0
  3
__ __ . __ __ . __ __ . __ __ .
 72
    65
 73
     6
 40
33.5
 49
12.0
 74
     0
 49
-3.0
 74
     0
 49
12.0
 74
     0
 49
-3.0
 74
     0
 49
0.5
 74
     0
 49
-3.0
 74
     0
  0
LTYPE
  5
43
100
AcDbSymbolTableRecord
100
AcDbLinetypeTableRecord
  2
ACAD_ISO12W100
 70
     0
  3
__ . . __ . . __ . . __ . . __ 
 72
    65
 73
     6
 40
22.0
 49
12.0
 74
     0
 49
-3.0
 74
     0
 49
0.5
 74
     0
 49
-3.0
 74
     0
 49
0.5
 74
     0
 49
-3.0
 74
     0
  0
LTYPE
  5
44
100
AcDbSymbolTableRecord
100
AcDbLinetypeTableRecord
  2
ACAD_ISO13W100
 70
     0
  3
__ __ . . __ __ . . __ __ . . _
 72
    65
 73
     6
 40
33.5
 49
12.0
 74
     0
 49
-3.0
 74
     0
 49
12.0
 74
     0
 49
-3.0
 74
     0
 49
0.5
 74
     0
 49
-3.0
 74
     0
  0
LTYPE
  5
45
100
AcDbSymbolTableRecord
100
AcDbLinetypeTableRecord
  2
ACAD_ISO14W100
 70
     0
  3
__ . . . __ . . . __ . . . __ .
 72
    65
 73
     6
 40
22.0
 49
12.0
 74
     0
 49
-3.0
 74
     0
 49
0.5
 74
     0
 49
-3.0
 74
     0
 49
0.5
 74
     0
 49
-3.0
 74
     0
  0
LTYPE
  5
46
100
AcDbSymbolTableRecord
100
AcDbLinetypeTableRecord
  2
ACAD_ISO15W100
 70
     0
  3
__ __ . . . __ __ . . . __ __ .
 72
    65
 73
     6
 40
33.5
 49
12.0
 74
     0
 49
-3.0
 74
     0
 49
12.0
 74
     0
 49
-3.0
 74
     0
 49
0.5
 74
     0
 49
-3.0
 74
     0
  0
ENDTAB
  0
TABLE
  2
LAYER
  5
2
100
AcDbSymbolTable
 70
     6
  0
LAYER
  5
E
100
AcDbSymbolTableRecord
100
AcDbLayerTableRecord
  2
0
 70
     0
 62
     7
  6
CONTINUOUS
  0
LAYER
  5
47
100
AcDbSymbolTableRecord
100
AcDbLayerTableRecord
  2
ARMOUR
 70
     4
 62
     7
  6
CONTINUOUS
  0
LAYER
  5
48
100
AcDbSymbolTableRecord
100
AcDbLayerTableRecord
  2
AXES
 70
     0
 62
     1
  6
CONTINUOUS
  0
LAYER
  5
49
100
AcDbSymbolTableRecord
100
AcDbLayerTableRecord
  2
COMMENTS
 70
     0
 62
    94
  6
CONTINUOUS
  0
LAYER
  5
4A
100
AcDbSymbolTableRecord
100
AcDbLayerTableRecord
  2
FILTERS
 70
     0
 62
     7
  6
CONTINUOUS
  0
LAYER
  5
4B
100
AcDbSymbolTableRecord
100
AcDbLayerTableRecord
  2
SOLIDS
 70
     0
 62
     7
  6
CONTINUOUS
  0
ENDTAB
  0
TABLE
  2
STYLE
  5
3
100
AcDbSymbolTable
 70
     4
  0
STYLE
  5
F
100
AcDbSymbolTableRecord
100
AcDbTextStyleTableRecord
  2
STANDARD
 70
     0
 40
0.0
 41
1.0
 50
0.0
 71
     0
 42
9.999999999999998
  3
txt
  4

  0
STYLE
  5
4C
100
AcDbSymbolTableRecord
100
AcDbTextStyleTableRecord
  2
ITALIC
 70
     0
 40
0.0
 41
1.0
 50
0.0
 71
     0
 42
9.999999999999998
  3
ITALIC
  4

  0
STYLE
  5
4D
100
AcDbSymbolTableRecord
100
AcDbTextStyleTableRecord
  2
SIMPLEX
 70
     0
 40
0.0
 41
1.0
 50
0.0
 71
     0
 42
9.999999999999998
  3
SIMPLEX
  4

  0
STYLE
  5
4E
100
AcDbSymbolTableRecord
100
AcDbTextStyleTableRecord
  2
COMPLEX
 70
     0
 40
0.0
 41
1.0
 50
0.0
 71
     0
 42
9.999999999999998
  3
COMPLEX
  4

  0
ENDTAB
  0
TABLE
  2
VIEW
  5
6
100
AcDbSymbolTable
 70
     0
  0
ENDTAB
  0
TABLE
  2
UCS
  5
7
100
AcDbSymbolTable
 70
     0
  0
ENDTAB
  0
TABLE
  2
APPID
  5
9
100
AcDbSymbolTable
 70
     1
  0
APPID
  5
10
100
AcDbSymbolTableRecord
100
AcDbRegAppTableRecord
  2
ACAD
 70
     0
  0
ENDTAB
  0
TABLE
  2
DIMSTYLE
  5
A
100
AcDbSymbolTable
 70
     1
  0
DIMSTYLE
105
1D
100
AcDbSymbolTableRecord
100
AcDbDimStyleTableRecord
  2
STANDARD
 70
     0
  3

  4

  5

  6

  7

 40
1.0
 41
0.18
 42
0.0625
 43
0.38
 44
0.18
 45
0.0
 46
0.0
 47
0.0
 48
0.0
140
0.18
141
0.09
142
0.0
143
25.4
144
1.0
145
0.0
146
1.0
147
0.09
 71
     0
 72
     0
 73
     1
 74
     1
 75
     0
 76
     0
 77
     0
 78
     0
170
     0
171
     2
172
     0
173
     0
174
     0
175
     0
176
     0
177
     0
178
     0
270
     2
271
     4
272
     4
273
     2
274
     2
340
F
275
     0
280
     0
281
     0
282
     0
283
     1
284
     0
285
     0
286
     0
287
     3
288
     0
  0
ENDTAB
  0
TABLE
  2
BLOCK_RECORD
  5
1
100
AcDbSymbolTable
 70
     0
  0
BLOCK_RECORD
  5
18
100
AcDbSymbolTableRecord
100
AcDbBlockTableRecord
  2
*MODEL_SPACE
  0
BLOCK_RECORD
  5
15
100
AcDbSymbolTableRecord
100
AcDbBlockTableRecord
  2
*PAPER_SPACE
  0
ENDTAB
  0
ENDSEC
  0
SECTION
  2
BLOCKS
  0
BLOCK
  5
19
100
AcDbEntity
  8
0
100
AcDbBlockBegin
  2
*MODEL_SPACE
 70
     0
 10
0.0
 20
0.0
 30
0.0
  3
*MODEL_SPACE
  1

  0
ENDBLK
  5
1A
100
AcDbEntity
  8
0
100
AcDbBlockEnd
  0
BLOCK
  5
16
100
AcDbEntity
 67
     1
  8
0
100
AcDbBlockBegin
  2
*PAPER_SPACE
 70
     0
 10
0.0
 20
0.0
 30
0.0
  3
*PAPER_SPACE
  1

  0
ENDBLK
  5
17
100
AcDbEntity
 67
     1
  8
0
100
AcDbBlockEnd
  0
ENDSEC
  0
SECTION
  2
ENTITIES
  0
CIRCLE
  5
4F
100
AcDbEntity
  8
FILTERS
  6
CONTINUOUS
100
AcDbCircle
 10
388.7406174959868
 20
874.1490001464756
 30
0.0
 40
140.0
  0
CIRCLE
  5
50
100
AcDbEntity
  8
FILTERS
  6
CONTINUOUS
100
AcDbCircle
 10
72.74061749598704
 20
874.1490001464756
 30
0.0
 40
140.0
  0
LINE
  5
51
100
AcDbEntity
  8
FILTERS
  6
CONTINUOUS
100
AcDbLine
 10
90.24061749598585
 20
718.149000146475
 30
0.0
 11
371.2406174959869
 21
718.1490001464759
 31
0.0
  0
LINE
  5
52
100
AcDbEntity
  8
FILTERS
  6
CONTINUOUS
100
AcDbLine
 10
72.74061749598702
 20
1030.149000146475
 30
0.0
 11
388.7406174959867
 21
1030.149000146475
 31
0.0
  0
ARC
  5
53
100
AcDbEntity
  8
FILTERS
  6
CONTINUOUS
100
AcDbCircle
 10
72.74061749598704
 20
874.1490001464756
 30
0.0
 40
155.9999999999999
100
AcDbArc
 50
89.99999999999994
 51
263.5590312421443
  0
LINE
  5
54
100
AcDbEntity
  8
FILTERS
  6
CONTINUOUS
100
AcDbLine
 10
583.7406174959859
 20
814.1490001464747
 30
0.0
 11
515.2317239027216
 21
814.1490001464751
 31
0.0
  0
LINE
  5
55
100
AcDbEntity
  8
FILTERS
  6
CONTINUOUS
100
AcDbLine
 10
583.7406174959872
 20
934.1490001464761
 30
0.0
 11
515.231723902722
 21
934.1490001464757
 31
0.0
  0
ARC
  5
56
100
AcDbEntity
  8
FILTERS
  6
CONTINUOUS
100
AcDbCircle
 10
388.7406174959868
 20
874.1490001464756
 30
0.0
 40
155.9999999999999
100
AcDbArc
 50
22.61986494804039
 51
89.99999999999994
  0
ARC
  5
57
100
AcDbEntity
  8
FILTERS
  6
CONTINUOUS
100
AcDbCircle
 10
388.7406174959868
 20
874.1490001464756
 30
0.0
 40
155.9999999999999
100
AcDbArc
 50
276.4409687578554
 51
337.3801350519594
  0
LINE
  5
58
100
AcDbEntity
  8
FILTERS
  6
CONTINUOUS
 62
     7
100
AcDbLine
 10
588.740617495987
 20
941.6490001464703
 30
0.0
 11
588.7406174959883
 21
806.6490001465011
 31
0.0
  0
LINE
  5
59
100
AcDbEntity
  8
FILTERS
  6
CONTINUOUS
 62
     7
100
AcDbLine
 10
583.7406174959872
 20
941.6490001464703
 30
0.0
 11
583.7406174959856
 21
806.6490001465011
 31
0.0
  0
LINE
  5
5A
100
AcDbEntity
  8
FILTERS
  6
CONTINUOUS
100
AcDbLine
 10
588.7406174959874
 20
806.6490001464755
 30
0.0
 11
583.7406174959859
 21
806.6490001464755
 31
0.0
  0
LINE
  5
5B
100
AcDbEntity
  8
FILTERS
  6
CONTINUOUS
100
AcDbLine
 10
588.7406174959876
 20
941.6490001464753
 30
0.0
 11
583.7406174959876
 21
941.6490001464753
 31
0.0
  0
LINE
  5
5C
100
AcDbEntity
  8
FILTERS
  6
CONTINUOUS
100
AcDbLine
 10
232.240617495987
 20
814.1490001464751
 30
0.0
 11
230.7406174959869
 21
810.1490001464751
 31
0.0
  0
LINE
  5
5D
100
AcDbEntity
  8
FILTERS
  6
CONTINUOUS
100
AcDbLine
 10
229.2406174959869
 20
814.1490001464751
 30
0.0
 11
230.7406174959869
 21
810.1490001464751
 31
0.0
  0
LINE
  5
5E
100
AcDbEntity
  8
FILTERS
  6
CONTINUOUS
100
AcDbLine
 10
232.240617495987
 20
814.1490001464751
 30
0.0
 11
232.240617495987
 21
934.1490001464746
 31
0.0
  0
LINE
  5
5F
100
AcDbEntity
  8
FILTERS
  6
CONTINUOUS
100
AcDbLine
 10
229.2406174959869
 20
814.1490001464751
 30
0.0
 11
229.2406174959869
 21
934.1490001464746
 31
0.0
  0
LINE
  5
60
100
AcDbEntity
  8
FILTERS
  6
CONTINUOUS
100
AcDbLine
 10
232.2406174959871
 20
934.1490001464746
 30
0.0
 11
230.7406174959869
 21
938.1490001464744
 31
0.0
  0
LINE
  5
61
100
AcDbEntity
  8
FILTERS
  6
CONTINUOUS
100
AcDbLine
 10
229.2406174959869
 20
934.1490001464746
 30
0.0
 11
230.7406174959869
 21
938.1490001464744
 31
0.0
  0
LINE
  5
62
100
AcDbEntity
  8
FILTERS
  6
CONTINUOUS
100
AcDbLine
 10
262.2495110892518
 20
814.1490001464754
 30
0.0
 11
232.2406174959869
 21
814.1490001464747
 31
0.0
  0
LINE
  5
63
100
AcDbEntity
  8
FILTERS
  6
CONTINUOUS
100
AcDbLine
 10
229.2406174959868
 20
814.1490001464754
 30
0.0
 11
199.2317239027221
 21
814.1490001464754
 31
0.0
  0
LINE
  5
64
100
AcDbEntity
  8
FILTERS
  6
CONTINUOUS
100
AcDbLine
 10
262.2495110892515
 20
934.1490001464752
 30
0.0
 11
232.2406174959869
 21
934.1490001464757
 31
0.0
  0
LINE
  5
65
100
AcDbEntity
  8
FILTERS
  6
CONTINUOUS
100
AcDbLine
 10
229.2406174959868
 20
934.1490001464752
 30
0.0
 11
199.2317239027221
 21
934.1490001464752
 31
0.0
  0
LINE
  5
66
100
AcDbEntity
  8
FILTERS
  6
CONTINUOUS
100
AcDbLine
 10
72.74061749598708
 20
-302.4650371859471
 30
0.0
 11
388.7406174959871
 21
-302.4650371859469
 31
0.0
  0
LINE
  5
67
100
AcDbEntity
  8
FILTERS
  6
CONTINUOUS
100
AcDbLine
 10
72.74061749598708
 20
9.534962814052812
 30
0.0
 11
388.740617495987
 21
9.534962814052812
 31
0.0
  0
CIRCLE
  5
68
100
AcDbEntity
  8
FILTERS
100
AcDbCircle
 10
72.74061749598711
 20
-146.4650371859469
 30
0.0
 40
140.0
  0
LINE
  5
69
100
AcDbEntity
  8
FILTERS
  6
CONTINUOUS
 62
     7
100
AcDbLine
 10
588.7406174959866
 20
-78.96503718595187
 30
0.0
 11
588.740617495988
 21
-213.9650371859211
 31
0.0
  0
LINE
  5
6A
100
AcDbEntity
  8
FILTERS
  6
CONTINUOUS
 62
     7
100
AcDbLine
 10
583.7406174959871
 20
-78.96503718595205
 30
0.0
 11
583.7406174959855
 21
-213.9650371859211
 31
0.0
  0
LINE
  5
6B
100
AcDbEntity
  8
FILTERS
  6
CONTINUOUS
100
AcDbLine
 10
588.7406174959871
 20
-213.9650371859468
 30
0.0
 11
583.7406174959856
 21
-213.9650371859468
 31
0.0
  0
LINE
  5
6C
100
AcDbEntity
  8
FILTERS
  6
CONTINUOUS
100
AcDbLine
 10
588.7406174959874
 20
-78.96503718594683
 30
0.0
 11
583.7406174959873
 21
-78.965037185947
 31
0.0
  0
LINE
  5
6D
100
AcDbEntity
  8
FILTERS
  6
CONTINUOUS
100
AcDbLine
 10
583.7406174959876
 20
-86.46503718594701
 30
0.0
 11
534.2678958036879
 21
-90.27063116227807
 31
0.0
  0
LINE
  5
6E
100
AcDbEntity
  8
FILTERS
  6
CONTINUOUS
100
AcDbLine
 10
583.7406174959876
 20
-206.4650371859467
 30
0.0
 11
534.2678958036879
 21
-202.6594432096158
 31
0.0
  0
CIRCLE
  5
6F
100
AcDbEntity
  8
FILTERS
100
AcDbCircle
 10
388.7406174959871
 20
-146.4650371859469
 30
0.0
 40
52.5
  0
CIRCLE
  5
70
100
AcDbEntity
  8
FILTERS
100
AcDbCircle
 10
72.74061749598711
 20
-146.4650371859469
 30
0.0
 40
55.5
  0
CIRCLE
  5
71
100
AcDbEntity
  8
FILTERS
100
AcDbCircle
 10
72.74061749598704
 20
874.1490001464756
 30
0.0
 40
77.5
  0
CIRCLE
  5
72
100
AcDbEntity
  8
FILTERS
100
AcDbCircle
 10
388.7406174959868
 20
874.1490001464756
 30
0.0
 40
77.5
  0
CIRCLE
  5
73
100
AcDbEntity
  8
FILTERS
100
AcDbCircle
 10
388.7406174959868
 20
874.1490001464756
 30
0.0
 40
67.5
  0
CIRCLE
  5
74
100
AcDbEntity
  8
FILTERS
100
AcDbCircle
 10
72.74061749598704
 20
874.1490001464756
 30
0.0
 40
67.5
  0
LINE
  5
75
100
AcDbEntity
  8
FILTERS
  6
CONTINUOUS
100
AcDbLine
 10
405.6453479656152
 20
-182.7173486674128
 30
0.0
 11
407.3166011588461
 21
-186.3013627062203
 31
0.0
  0
LINE
  5
76
100
AcDbEntity
  8
FILTERS
  6
CONTINUOUS
100
AcDbLine
 10
424.9929289774533
 20
-163.3697676555748
 30
0.0
 11
428.5769430162607
 21
-165.0410208488058
 31
0.0
  0
ARC
  5
77
100
AcDbEntity
  8
FILTERS
100
AcDbCircle
 10
388.7406174959871
 20
-146.4650371859469
 30
0.0
 40
45.99999999999999
100
AcDbArc
 50
297.6052512650571
 51
332.3947487349427
  0
ARC
  5
78
100
AcDbEntity
  8
FILTERS
100
AcDbCircle
 10
427.7317064927793
 20
-166.853636422879
 30
0.0
 40
1.999999999999999
100
AcDbArc
 50
332.3947487349427
 51
65.00000000000072
  0
ARC
  5
79
100
AcDbEntity
  8
FILTERS
  6
CONTINUOUS
100
AcDbCircle
 10
409.1292167329195
 20
-185.456126182739
 30
0.0
 40
1.999999999999999
100
AcDbArc
 50
205.0000000000018
 51
297.6052512650572
  0
LINE
  5
7A
100
AcDbEntity
  8
FILTERS
  6
CONTINUOUS
100
AcDbLine
 10
352.4883060145211
 20
-129.5603067163187
 30
0.0
 11
348.9042919757137
 21
-127.8890535230878
 31
0.0
  0
LINE
  5
7B
100
AcDbEntity
  8
FILTERS
  6
CONTINUOUS
100
AcDbLine
 10
371.8358870263593
 20
-110.2127257044808
 30
0.0
 11
370.1646338331282
 21
-106.6287116656733
 31
0.0
  0
ARC
  5
7C
100
AcDbEntity
  8
FILTERS
100
AcDbCircle
 10
388.7406174959871
 20
-146.4650371859468
 30
0.0
 40
45.99999999999999
100
AcDbArc
 50
117.6052512650572
 51
152.3947487349428
  0
ARC
  5
7D
100
AcDbEntity
  8
FILTERS
100
AcDbCircle
 10
368.3520182590549
 20
-107.4739481891546
 30
0.0
 40
1.999999999999999
100
AcDbArc
 50
24.99999999999931
 51
117.6052512650572
  0
ARC
  5
7E
100
AcDbEntity
  8
FILTERS
  6
CONTINUOUS
100
AcDbCircle
 10
349.749528499195
 20
-126.0764379490146
 30
0.0
 40
1.999999999999999
100
AcDbArc
 50
152.3947487349428
 51
244.9999999999981
  0
ARC
  5
7F
100
AcDbEntity
  8
FILTERS
100
AcDbCircle
 10
388.7406174959871
 20
-146.4650371859469
 30
0.0
 40
39.99999999999999
100
AcDbArc
 50
154.9999999999999
 51
295.0
  0
ARC
  5
80
100
AcDbEntity
  8
FILTERS
100
AcDbCircle
 10
388.7406174959871
 20
-146.4650371859469
 30
0.0
 40
39.99999999999999
100
AcDbArc
 50
334.9999999999999
 51
115.0
  0
LINE
  5
81
100
AcDbEntity
  8
FILTERS
  6
CONTINUOUS
 62
     7
100
AcDbLine
 10
-183.3219165496224
 20
245.3629866773674
 30
0.0
 11
-183.3219165496219
 21
274.3629866773674
 31
0.0
  0
LINE
  5
82
100
AcDbEntity
  8
FILTERS
  6
CONTINUOUS
 62
     7
100
AcDbLine
 10
-459.1265096121012
 20
245.3629866773674
 30
0.0
 11
-183.3219165496222
 21
245.3629866773674
 31
0.0
  0
LINE
  5
83
100
AcDbEntity
  8
FILTERS
  6
CONTINUOUS
 62
     7
100
AcDbLine
 10
-479.3219165496221
 20
274.3629866773674
 30
0.0
 11
-479.3219165496219
 21
446.3629866773673
 31
0.0
  0
LINE
  5
84
100
AcDbEntity
  8
FILTERS
  6
CONTINUOUS
 62
     7
100
AcDbLine
 10
-479.3219165496219
 20
274.3629866773674
 30
0.0
 11
-167.321916549622
 21
274.3629866773674
 31
0.0
  0
LINE
  5
85
100
AcDbEntity
  8
FILTERS
  6
CONTINUOUS
 62
     7
100
AcDbLine
 10
-463.3219165496214
 20
446.3629866773673
 30
0.0
 11
-463.321916549622
 21
580.3629866773672
 31
0.0
  0
LINE
  5
86
100
AcDbEntity
  8
FILTERS
  6
CONTINUOUS
 62
     7
100
AcDbLine
 10
-183.3219165496222
 20
580.3629866773672
 30
0.0
 11
-463.3219165496222
 21
580.3629866773672
 31
0.0
  0
LINE
  5
87
100
AcDbEntity
  8
FILTERS
  6
CONTINUOUS
 62
     7
100
AcDbLine
 10
-479.3219165496219
 20
446.3629866773673
 30
0.0
 11
-167.3219165496222
 21
446.3629866773673
 31
0.0
  0
LINE
  5
88
100
AcDbEntity
  8
FILTERS
  6
CONTINUOUS
100
AcDbLine
 10
-462.0094165496216
 20
243.8629866773669
 30
0.0
 11
-375.8219165496221
 21
145.3629866773674
 31
0.0
  0
LINE
  5
89
100
AcDbEntity
  8
FILTERS
  6
CONTINUOUS
100
AcDbLine
 10
-183.3219165496222
 20
245.3629866773674
 30
0.0
 11
-270.8219165496221
 21
145.3629866773674
 31
0.0
  0
LINE
  5
8A
100
AcDbEntity
  8
FILTERS
  6
CONTINUOUS
 62
     7
100
AcDbLine
 10
-183.3219165496192
 20
446.3629866773673
 30
0.0
 11
-183.3219165496222
 21
580.3629866773672
 31
0.0
  0
LINE
  5
8B
100
AcDbEntity
  8
FILTERS
  6
CONTINUOUS
 62
     7
100
AcDbLine
 10
-183.3219165496222
 20
572.3629866773672
 30
0.0
 11
-463.3219165496222
 21
572.3629866773672
 31
0.0
  0
LINE
  5
8C
100
AcDbEntity
  8
FILTERS
  6
CONTINUOUS
 62
     7
100
AcDbLine
 10
-270.8219165496221
 20
132.3629866773674
 30
0.0
 11
-270.8219165496221
 21
145.3629866773674
 31
0.0
  0
LINE
  5
8D
100
AcDbEntity
  8
FILTERS
  6
CONTINUOUS
 62
     7
100
AcDbLine
 10
-375.8219165496224
 20
132.3629866773674
 30
0.0
 11
-375.8219165496221
 21
145.3629866773674
 31
0.0
  0
LINE
  5
8E
100
AcDbEntity
  8
FILTERS
  6
CONTINUOUS
 62
     7
100
AcDbLine
 10
-270.8219165496221
 20
145.3629866773674
 30
0.0
 11
-375.8219165496221
 21
145.3629866773674
 31
0.0
  0
LINE
  5
8F
100
AcDbEntity
  8
FILTERS
  6
CONTINUOUS
 62
     7
100
AcDbLine
 10
-376.8219165496229
 20
122.3629866773675
 30
0.0
 11
-269.8219165496215
 21
122.3629866773674
 31
0.0
  0
LINE
  5
90
100
AcDbEntity
  8
FILTERS
  6
CONTINUOUS
 62
     7
100
AcDbLine
 10
-267.8219165496213
 20
124.3629866773675
 30
0.0
 11
-267.8219165496216
 21
132.3629866773674
 31
0.0
  0
LINE
  5
91
100
AcDbEntity
  8
FILTERS
  6
CONTINUOUS
 62
     7
100
AcDbLine
 10
-378.8219165496229
 20
124.3629866773677
 30
0.0
 11
-378.8219165496219
 21
132.3629866773673
 31
0.0
  0
LINE
  5
92
100
AcDbEntity
  8
FILTERS
  6
CONTINUOUS
 62
     7
100
AcDbLine
 10
-378.8219165496228
 20
132.3629866773674
 30
0.0
 11
-267.8219165496211
 21
132.3629866773674
 31
0.0
  0
ARC
  5
93
100
AcDbEntity
  8
FILTERS
  6
CONTINUOUS
 62
     7
100
AcDbCircle
 10
-376.8219165496229
 20
124.3629866773675
 30
0.0
 40
1.999999999999999
100
AcDbArc
 50
179.9999999999928
 51
270.0
  0
ARC
  5
94
100
AcDbEntity
  8
FILTERS
  6
CONTINUOUS
 62
     7
100
AcDbCircle
 10
-269.8219165496215
 20
124.3629866773674
 30
0.0
 40
1.999999999999999
100
AcDbArc
 50
270.0
 51
0.0000000000019185
  0
LINE
  5
95
100
AcDbEntity
  8
FILTERS
  6
CONTINUOUS
 62
     7
100
AcDbLine
 10
-167.321916549622
 20
274.3629866773674
 30
0.0
 11
-167.3219165496222
 21
446.3629866773673
 31
0.0
  0
LINE
  5
96
100
AcDbEntity
  8
FILTERS
100
AcDbLine
 10
283.2406174959859
 20
1037.149000146475
 30
0.0
 11
283.2406174959866
 21
1030.149000146475
 31
0.0
  0
LINE
  5
97
100
AcDbEntity
  8
FILTERS
100
AcDbLine
 10
178.2406174959866
 20
1037.149000146475
 30
0.0
 11
178.2406174959866
 21
1030.149000146475
 31
0.0
  0
LWPOLYLINE
  5
98
100
AcDbEntity
  8
FILTERS
100
AcDbPolyline
 90
        6
 70
     1
 43
0.0
 10
175.2406174959854
 20
1045.149000146475
 42
-0.4142135623731013
 10
177.2406174959854
 20
1047.149000146475
 10
284.2406174959882
 20
1047.149000146475
 42
-0.4142135623731013
 10
286.2406174959882
 20
1045.149000146475
 10
286.2406174959855
 20
1037.149000146475
 10
175.2406174959855
 20
1037.149000146475
  0
ARC
  5
99
100
AcDbEntity
  8
FILTERS
100
AcDbCircle
 10
230.7406174959853
 20
541.8990001464633
 30
0.0
 40
507.2500000000121
100
AcDbArc
 50
84.91039124037376
 51
95.08960875962591
  0
LINE
  5
9A
100
AcDbEntity
  8
FILTERS
100
AcDbLine
 10
283.2406174959862
 20
-309.4650371859468
 30
0.0
 11
283.2406174959869
 21
-302.4650371859465
 31
0.0
  0
LINE
  5
9B
100
AcDbEntity
  8
FILTERS
100
AcDbLine
 10
178.2406174959868
 20
-309.4650371859468
 30
0.0
 11
178.2406174959869
 21
-302.4650371859466
 31
0.0
  0
LWPOLYLINE
  5
9C
100
AcDbEntity
  8
FILTERS
100
AcDbPolyline
 90
        6
 70
     1
 43
0.0
 10
175.2406174959856
 20
-317.4650371859468
 42
0.4142135623731013
 10
177.2406174959856
 20
-319.4650371859468
 10
284.2406174959885
 20
-319.4650371859464
 42
0.4142135623731013
 10
286.2406174959885
 20
-317.4650371859464
 10
286.2406174959858
 20
-309.4650371859467
 10
175.2406174959858
 20
-309.4650371859467
  0
ARC
  5
9D
100
AcDbEntity
  8
FILTERS
100
AcDbCircle
 10
230.7406174959856
 20
185.7849628140654
 30
0.0
 40
507.2500000000121
100
AcDbArc
 50
264.9103912403741
 51
275.0896087596262
  0
LINE
  5
9E
100
AcDbEntity
  8
FILTERS
  6
CONTINUOUS
 62
     7
100
AcDbLine
 10
212.7406174959868
 20
245.3629866773674
 30
0.0
 11
212.7406174959868
 21
274.3629866773674
 31
0.0
  0
LINE
  5
9F
100
AcDbEntity
  8
FILTERS
  6
CONTINUOUS
 62
     7
100
AcDbLine
 10
-67.25938250401306
 20
245.3629866773675
 30
0.0
 11
-67.25938250401378
 21
274.3629866773674
 31
0.0
  0
LINE
  5
A0
100
AcDbEntity
  8
FILTERS
  6
CONTINUOUS
 62
     7
100
AcDbLine
 10
-83.25938250401303
 20
274.3629866773675
 30
0.0
 11
-83.25938250401284
 21
446.3629866773675
 31
0.0
  0
LINE
  5
A1
100
AcDbEntity
  8
FILTERS
  6
CONTINUOUS
 62
     7
100
AcDbLine
 10
-83.25938250401303
 20
274.3629866773674
 30
0.0
 11
544.7406174959869
 21
274.3629866773673
 31
0.0
  0
LINE
  5
A2
100
AcDbEntity
  8
FILTERS
  6
CONTINUOUS
 62
     7
100
AcDbLine
 10
248.7406174959872
 20
580.3629866773674
 30
0.0
 11
528.7406174959873
 21
580.3629866773673
 31
0.0
  0
LINE
  5
A3
100
AcDbEntity
  8
FILTERS
  6
CONTINUOUS
 62
     7
100
AcDbLine
 10
-67.2593825040127
 20
446.3629866773675
 30
0.0
 11
-67.25938250401288
 21
580.3629866773673
 31
0.0
  0
LINE
  5
A4
100
AcDbEntity
  8
FILTERS
  6
CONTINUOUS
 62
     7
100
AcDbLine
 10
212.7406174959871
 20
580.3629866773672
 30
0.0
 11
-67.25938250401306
 21
580.3629866773673
 31
0.0
  0
LINE
  5
A5
100
AcDbEntity
  8
FILTERS
  6
CONTINUOUS
 62
     7
100
AcDbLine
 10
371.2406174959864
 20
409.8629866773457
 30
0.0
 11
371.240617495987
 21
565.3629866773666
 31
0.0
  0
LINE
  5
A6
100
AcDbEntity
  8
FILTERS
  6
CONTINUOUS
 62
     7
100
AcDbLine
 10
406.2406174959866
 20
409.8629866773306
 30
0.0
 11
406.2406174959873
 21
565.3629866773666
 31
0.0
  0
LINE
  5
A7
100
AcDbEntity
  8
FILTERS
  6
CONTINUOUS
 62
     7
100
AcDbLine
 10
406.2406174959873
 20
446.3629866773673
 30
0.0
 11
544.7406174959869
 21
446.3629866773675
 31
0.0
  0
LINE
  5
A8
100
AcDbEntity
  8
FILTERS
  6
CONTINUOUS
100
AcDbLine
 10
-67.25938250401306
 20
245.3629866773674
 30
0.0
 11
20.24061749598689
 21
145.3629866773674
 31
0.0
  0
LINE
  5
A9
100
AcDbEntity
  8
FILTERS
  6
CONTINUOUS
100
AcDbLine
 10
212.7406174959869
 20
245.3629866773674
 30
0.0
 11
125.240617495987
 21
145.3629866773674
 31
0.0
  0
LINE
  5
AA
100
AcDbEntity
  8
FILTERS
  6
CONTINUOUS
100
AcDbLine
 10
528.7406174959873
 20
450.3629866773677
 30
0.0
 11
583.7406174959873
 21
450.3629866773676
 31
0.0
  0
LINE
  5
AB
100
AcDbEntity
  8
FILTERS
  6
CONTINUOUS
100
AcDbLine
 10
528.7406174959869
 20
570.362986677367
 30
0.0
 11
583.7406174959864
 21
570.3629866773674
 31
0.0
  0
LINE
  5
AC
100
AcDbEntity
  8
FILTERS
  6
CONTINUOUS
 62
     7
100
AcDbLine
 10
528.7406174959817
 20
446.3629866773676
 30
0.0
 11
528.7406174959869
 21
450.3629866773679
 31
0.0
  0
LINE
  5
AD
100
AcDbEntity
  8
FILTERS
  6
CONTINUOUS
 62
     7
100
AcDbLine
 10
528.7406174959829
 20
570.3629866773663
 30
0.0
 11
528.740617495987
 21
580.3629866773673
 31
0.0
  0
ARC
  5
AE
100
AcDbEntity
  8
FILTERS
  6
CONTINUOUS
100
AcDbCircle
 10
339.2317239027194
 20
508.3629866773677
 30
0.0
 40
139.9999999999973
100
AcDbArc
 50
154.6230664748471
 51
205.3769335251527
  0
ARC
  5
AF
100
AcDbEntity
  8
FILTERS
  6
CONTINUOUS
100
AcDbCircle
 10
122.2495110892549
 20
508.3629866773679
 30
0.0
 40
139.9999999999973
100
AcDbArc
 50
334.6230664748472
 51
25.37693352515283
  0
LINE
  5
B0
100
AcDbEntity
  8
FILTERS
  6
CONTINUOUS
 62
     7
100
AcDbLine
 10
248.7406174959867
 20
568.3629866773676
 30
0.0
 11
248.7406174959872
 21
580.3629866773674
 31
0.0
  0
LINE
  5
B1
100
AcDbEntity
  8
FILTERS
  6
CONTINUOUS
 62
     7
100
AcDbLine
 10
212.7406174959875
 20
568.3629866773673
 30
0.0
 11
212.7406174959871
 21
580.3629866773672
 31
0.0
  0
LINE
  5
B2
100
AcDbEntity
  8
FILTERS
  6
CONTINUOUS
 62
     7
100
AcDbLine
 10
248.7406174959872
 20
572.3629866773674
 30
0.0
 11
528.7406174959873
 21
572.3629866773673
 31
0.0
  0
LINE
  5
B3
100
AcDbEntity
  8
FILTERS
  6
CONTINUOUS
 62
     7
100
AcDbLine
 10
212.7406174959871
 20
572.3629866773672
 30
0.0
 11
-67.25938250401306
 21
572.3629866773673
 31
0.0
  0
LINE
  5
B4
100
AcDbEntity
  8
FILTERS
  6
CONTINUOUS
 62
     7
100
AcDbLine
 10
406.2406174959871
 20
565.3629866773672
 30
0.0
 11
371.2406174959872
 21
565.3629866773672
 31
0.0
  0
ARC
  5
B5
100
AcDbEntity
  8
FILTERS
  6
CONTINUOUS
100
AcDbCircle
 10
655.2317239027209
 20
510.3629866773679
 30
0.0
 40
139.9999999999986
100
AcDbArc
 50
154.6230664748478
 51
205.3769335251526
  0
LINE
  5
B6
100
AcDbEntity
  8
FILTERS
  6
CONTINUOUS
 62
     7
100
AcDbLine
 10
544.740617495987
 20
274.3629866773673
 30
0.0
 11
544.7406174959876
 21
298.3629866773684
 31
0.0
  0
LINE
  5
B7
100
AcDbEntity
  8
FILTERS
  6
CONTINUOUS
 62
     7
100
AcDbLine
 10
544.7406174959861
 20
412.3629866773664
 30
0.0
 11
544.7406174959865
 21
446.3629866773673
 31
0.0
  0
LINE
  5
B8
100
AcDbEntity
  8
FILTERS
  6
CONTINUOUS
100
AcDbLine
 10
248.7406174959871
 20
245.3629866773674
 30
0.0
 11
336.240617495987
 21
145.3629866773674
 31
0.0
  0
LINE
  5
B9
100
AcDbEntity
  8
FILTERS
  6
CONTINUOUS
100
AcDbLine
 10
528.7406174959873
 20
245.3629866773673
 30
0.0
 11
441.2406174959872
 21
145.3629866773674
 31
0.0
  0
LINE
  5
BA
100
AcDbEntity
  8
FILTERS
  6
CONTINUOUS
 62
     7
100
AcDbLine
 10
125.240617495987
 20
132.3629866773674
 30
0.0
 11
125.240617495987
 21
145.3629866773674
 31
0.0
  0
LINE
  5
BB
100
AcDbEntity
  8
FILTERS
  6
CONTINUOUS
 62
     7
100
AcDbLine
 10
20.24061749598671
 20
132.3629866773674
 30
0.0
 11
20.24061749598689
 21
145.3629866773674
 31
0.0
  0
LINE
  5
BC
100
AcDbEntity
  8
FILTERS
  6
CONTINUOUS
 62
     7
100
AcDbLine
 10
125.240617495987
 20
145.3629866773674
 30
0.0
 11
20.24061749598689
 21
145.3629866773674
 31
0.0
  0
LINE
  5
BD
100
AcDbEntity
  8
FILTERS
  6
CONTINUOUS
 62
     7
100
AcDbLine
 10
19.24061749598621
 20
122.3629866773675
 30
0.0
 11
126.2406174959875
 21
122.3629866773675
 31
0.0
  0
LINE
  5
BE
100
AcDbEntity
  8
FILTERS
  6
CONTINUOUS
 62
     7
100
AcDbLine
 10
128.2406174959876
 20
124.3629866773675
 30
0.0
 11
128.2406174959874
 21
132.3629866773675
 31
0.0
  0
LINE
  5
BF
100
AcDbEntity
  8
FILTERS
  6
CONTINUOUS
 62
     7
100
AcDbLine
 10
17.24061749598613
 20
124.3629866773678
 30
0.0
 11
17.24061749598703
 21
132.3629866773674
 31
0.0
  0
LINE
  5
C0
100
AcDbEntity
  8
FILTERS
  6
CONTINUOUS
 62
     7
100
AcDbLine
 10
17.24061749598631
 20
132.3629866773674
 30
0.0
 11
128.2406174959879
 21
132.3629866773675
 31
0.0
  0
LINE
  5
C1
100
AcDbEntity
  8
FILTERS
  6
CONTINUOUS
 62
     7
100
AcDbLine
 10
588.7406174959866
 20
442.8629866773727
 30
0.0
 11
588.7406174959883
 21
577.862986677342
 31
0.0
  0
LINE
  5
C2
100
AcDbEntity
  8
FILTERS
  6
CONTINUOUS
 62
     7
100
AcDbLine
 10
583.7406174959871
 20
442.862986677373
 30
0.0
 11
583.7406174959856
 21
577.862986677342
 31
0.0
  0
LINE
  5
C3
100
AcDbEntity
  8
FILTERS
  6
CONTINUOUS
100
AcDbLine
 10
588.7406174959874
 20
577.8629866773677
 30
0.0
 11
583.7406174959858
 21
577.8629866773677
 31
0.0
  0
LINE
  5
C4
100
AcDbEntity
  8
FILTERS
  6
CONTINUOUS
100
AcDbLine
 10
588.7406174959874
 20
442.8629866773677
 30
0.0
 11
583.7406174959873
 21
442.8629866773679
 31
0.0
  0
LINE
  5
C5
100
AcDbEntity
  8
FILTERS
  6
CONTINUOUS
 62
     7
100
AcDbLine
 10
588.7406174959866
 20
287.8629866773726
 30
0.0
 11
588.740617495988
 21
422.8629866773419
 31
0.0
  0
LINE
  5
C6
100
AcDbEntity
  8
FILTERS
  6
CONTINUOUS
 62
     7
100
AcDbLine
 10
583.7406174959871
 20
287.8629866773728
 30
0.0
 11
583.7406174959852
 21
422.8629866773419
 31
0.0
  0
LINE
  5
C7
100
AcDbEntity
  8
FILTERS
  6
CONTINUOUS
100
AcDbLine
 10
588.740617495987
 20
422.8629866773675
 30
0.0
 11
583.7406174959856
 21
422.8629866773675
 31
0.0
  0
LINE
  5
C8
100
AcDbEntity
  8
FILTERS
  6
CONTINUOUS
100
AcDbLine
 10
588.7406174959874
 20
287.8629866773676
 30
0.0
 11
583.7406174959873
 21
287.8629866773678
 31
0.0
  0
LINE
  5
C9
100
AcDbEntity
  8
FILTERS
  6
CONTINUOUS
100
AcDbLine
 10
583.7406174959873
 20
295.3629866773678
 30
0.0
 11
544.740617495987
 21
298.362986677368
 31
0.0
  0
LINE
  5
CA
100
AcDbEntity
  8
FILTERS
  6
CONTINUOUS
100
AcDbLine
 10
583.7406174959873
 20
415.3629866773675
 30
0.0
 11
544.740617495987
 21
412.3629866773673
 31
0.0
  0
ARC
  5
CB
100
AcDbEntity
  8
FILTERS
  6
CONTINUOUS
100
AcDbCircle
 10
674.1156174959854
 20
355.3629866773676
 30
0.0
 40
141.3749999999985
100
AcDbArc
 50
156.2226839207439
 51
203.777316079256
  0
LINE
  5
CC
100
AcDbEntity
  8
FILTERS
  6
CONTINUOUS
100
AcDbLine
 10
248.7406174959872
 20
448.362986677368
 30
0.0
 11
248.7406174959733
 21
446.3629866773673
 31
0.0
  0
LINE
  5
CD
100
AcDbEntity
  8
FILTERS
  6
CONTINUOUS
100
AcDbLine
 10
212.7406174959871
 20
448.362986677368
 30
0.0
 11
212.740617495968
 21
446.3629866773673
 31
0.0
  0
LINE
  5
CE
100
AcDbEntity
  8
FILTERS
  6
CONTINUOUS
100
AcDbLine
 10
232.240617495987
 20
568.3629866773675
 30
0.0
 11
230.7406174959869
 21
572.3629866773672
 31
0.0
  0
LINE
  5
CF
100
AcDbEntity
  8
FILTERS
  6
CONTINUOUS
100
AcDbLine
 10
229.240617495987
 20
568.3629866773675
 30
0.0
 11
230.7406174959869
 21
572.3629866773672
 31
0.0
  0
LINE
  5
D0
100
AcDbEntity
  8
FILTERS
  6
CONTINUOUS
100
AcDbLine
 10
232.240617495987
 20
568.3629866773675
 30
0.0
 11
232.240617495987
 21
448.362986677368
 31
0.0
  0
LINE
  5
D1
100
AcDbEntity
  8
FILTERS
  6
CONTINUOUS
100
AcDbLine
 10
229.240617495987
 20
568.3629866773675
 30
0.0
 11
229.240617495987
 21
448.362986677368
 31
0.0
  0
LINE
  5
D2
100
AcDbEntity
  8
FILTERS
  6
CONTINUOUS
100
AcDbLine
 10
232.2406174959872
 20
448.3629866773679
 30
0.0
 11
231.4906174959933
 21
446.3629866773673
 31
0.0
  0
LINE
  5
D3
100
AcDbEntity
  8
FILTERS
  6
CONTINUOUS
100
AcDbLine
 10
229.240617495987
 20
448.3629866773679
 30
0.0
 11
229.9906174959866
 21
446.3629866773673
 31
0.0
  0
LINE
  5
D4
100
AcDbEntity
  8
FILTERS
  6
CONTINUOUS
100
AcDbLine
 10
212.7406174959871
 20
568.3629866773673
 30
0.0
 11
229.240617495987
 21
568.3629866773676
 31
0.0
  0
LINE
  5
D5
100
AcDbEntity
  8
FILTERS
  6
CONTINUOUS
100
AcDbLine
 10
232.240617495987
 20
568.362986677367
 30
0.0
 11
248.7406174959872
 21
568.3629866773673
 31
0.0
  0
LINE
  5
D6
100
AcDbEntity
  8
FILTERS
  6
CONTINUOUS
100
AcDbLine
 10
248.7406174959872
 20
448.362986677368
 30
0.0
 11
232.240617495987
 21
448.3629866773687
 31
0.0
  0
LINE
  5
D7
100
AcDbEntity
  8
FILTERS
  6
CONTINUOUS
100
AcDbLine
 10
229.240617495987
 20
448.3629866773672
 30
0.0
 11
212.7406174959871
 21
448.362986677368
 31
0.0
  0
LINE
  5
D8
100
AcDbEntity
  8
FILTERS
  6
CONTINUOUS
100
AcDbLine
 10
373.1521602278674
 20
546.3629866773678
 30
0.0
 11
371.2406174959872
 21
546.3629866773678
 31
0.0
  0
LINE
  5
D9
100
AcDbEntity
  8
FILTERS
  6
CONTINUOUS
100
AcDbLine
 10
373.1521602278673
 20
534.3629866773677
 30
0.0
 11
371.2406174959872
 21
534.3629866773677
 31
0.0
  0
ARC
  5
DA
100
AcDbEntity
  8
FILTERS
100
AcDbCircle
 10
388.7406174959873
 20
540.3629866773671
 30
0.0
 40
15.0
100
AcDbArc
 50
209.9999999999992
 51
149.9999999999988
  0
ARC
  5
DB
100
AcDbEntity
  8
FILTERS
100
AcDbCircle
 10
373.1521602278676
 20
549.3629866773675
 30
0.0
 40
3.0
100
AcDbArc
 50
269.9999999999998
 51
329.9999999999988
  0
ARC
  5
DC
100
AcDbEntity
  8
FILTERS
  6
CONTINUOUS
100
AcDbCircle
 10
373.1521602278673
 20
531.3629866773673
 30
0.0
 40
3.0
100
AcDbArc
 50
29.9999999999991
 51
89.99999999999984
  0
LINE
  5
DD
100
AcDbEntity
  8
FILTERS
  6
CONTINUOUS
100
AcDbLine
 10
373.1521602278674
 20
496.3629866773679
 30
0.0
 11
371.2406174959872
 21
496.3629866773679
 31
0.0
  0
LINE
  5
DE
100
AcDbEntity
  8
FILTERS
  6
CONTINUOUS
100
AcDbLine
 10
373.1521602278669
 20
484.3629866773678
 30
0.0
 11
371.240617495987
 21
484.3629866773678
 31
0.0
  0
ARC
  5
DF
100
AcDbEntity
  8
FILTERS
100
AcDbCircle
 10
388.7406174959871
 20
490.3629866773672
 30
0.0
 40
15.0
100
AcDbArc
 50
209.9999999999992
 51
149.9999999999988
  0
ARC
  5
E0
100
AcDbEntity
  8
FILTERS
100
AcDbCircle
 10
373.1521602278674
 20
499.3629866773676
 30
0.0
 40
3.0
100
AcDbArc
 50
269.9999999999998
 51
329.9999999999988
  0
ARC
  5
E1
100
AcDbEntity
  8
FILTERS
  6
CONTINUOUS
100
AcDbCircle
 10
373.1521602278669
 20
481.3629866773675
 30
0.0
 40
3.0
100
AcDbArc
 50
29.9999999999991
 51
89.99999999999984
  0
CIRCLE
  5
E2
100
AcDbEntity
  8
FILTERS
100
AcDbCircle
 10
388.7406174959871
 20
490.3629866773672
 30
0.0
 40
6.0
  0
CIRCLE
  5
E3
100
AcDbEntity
  8
FILTERS
100
AcDbCircle
 10
388.7406174959873
 20
540.3629866773671
 30
0.0
 40
6.0
  0
ARC
  5
E4
100
AcDbEntity
  8
FILTERS
  6
CONTINUOUS
 62
     7
100
AcDbCircle
 10
19.24061749598621
 20
124.3629866773675
 30
0.0
 40
1.999999999999999
100
AcDbArc
 50
179.9999999999928
 51
270.0
  0
ARC
  5
E5
100
AcDbEntity
  8
FILTERS
  6
CONTINUOUS
 62
     7
100
AcDbCircle
 10
126.2406174959875
 20
124.3629866773675
 30
0.0
 40
1.999999999999999
100
AcDbArc
 50
270.0
 51
0.0000000000019185
  0
LINE
  5
E6
100
AcDbEntity
  8
FILTERS
  6
CONTINUOUS
 62
     7
100
AcDbLine
 10
441.2406174959875
 20
132.3629866773673
 30
0.0
 11
441.2406174959875
 21
145.3629866773673
 31
0.0
  0
LINE
  5
E7
100
AcDbEntity
  8
FILTERS
  6
CONTINUOUS
 62
     7
100
AcDbLine
 10
336.2406174959872
 20
132.3629866773673
 30
0.0
 11
336.2406174959874
 21
145.3629866773674
 31
0.0
  0
LINE
  5
E8
100
AcDbEntity
  8
FILTERS
  6
CONTINUOUS
 62
     7
100
AcDbLine
 10
441.2406174959875
 20
145.3629866773673
 30
0.0
 11
336.2406174959874
 21
145.3629866773674
 31
0.0
  0
LINE
  5
E9
100
AcDbEntity
  8
FILTERS
  6
CONTINUOUS
 62
     7
100
AcDbLine
 10
335.2406174959867
 20
122.3629866773674
 30
0.0
 11
442.240617495988
 21
122.3629866773674
 31
0.0
  0
LINE
  5
EA
100
AcDbEntity
  8
FILTERS
  6
CONTINUOUS
 62
     7
100
AcDbLine
 10
444.2406174959881
 20
124.3629866773674
 30
0.0
 11
444.2406174959879
 21
132.3629866773674
 31
0.0
  0
LINE
  5
EB
100
AcDbEntity
  8
FILTERS
  6
CONTINUOUS
 62
     7
100
AcDbLine
 10
333.2406174959866
 20
124.3629866773676
 30
0.0
 11
333.2406174959875
 21
132.3629866773673
 31
0.0
  0
LINE
  5
EC
100
AcDbEntity
  8
FILTERS
  6
CONTINUOUS
 62
     7
100
AcDbLine
 10
333.2406174959868
 20
132.3629866773673
 30
0.0
 11
444.2406174959884
 21
132.3629866773674
 31
0.0
  0
ARC
  5
ED
100
AcDbEntity
  8
FILTERS
  6
CONTINUOUS
 62
     7
100
AcDbCircle
 10
335.2406174959867
 20
124.3629866773674
 30
0.0
 40
1.999999999999999
100
AcDbArc
 50
179.9999999999928
 51
270.0
  0
ARC
  5
EE
100
AcDbEntity
  8
FILTERS
  6
CONTINUOUS
 62
     7
100
AcDbCircle
 10
442.240617495988
 20
124.3629866773674
 30
0.0
 40
1.999999999999999
100
AcDbArc
 50
270.0
 51
0.0000000000019185
  0
LINE
  5
EF
100
AcDbEntity
  8
FILTERS
  6
CONTINUOUS
 62
     7
100
AcDbLine
 10
-83.25938250401284
 20
446.3629866773675
 30
0.0
 11
55.24061749598687
 21
446.3629866773675
 31
0.0
  0
LINE
  5
F0
100
AcDbEntity
  8
FILTERS
  6
CONTINUOUS
 62
     7
100
AcDbLine
 10
90.24061749598685
 20
446.3629866773673
 30
0.0
 11
371.2406174959872
 21
446.3629866773673
 31
0.0
  0
LWPOLYLINE
  5
F1
100
AcDbEntity
  8
FILTERS
100
AcDbPolyline
 90
        6
 70
     1
 43
0.0
 10
378.7406174959871
 20
496.1364893692636
 10
388.7406174959871
 20
501.9099920611599
 10
398.7406174959872
 20
496.1364893692636
 10
398.7406174959872
 20
484.589483985471
 10
388.7406174959871
 20
478.8159812935746
 10
378.7406174959871
 20
484.5894839854709
  0
LWPOLYLINE
  5
F2
100
AcDbEntity
  8
FILTERS
100
AcDbPolyline
 90
        6
 70
     1
 43
0.0
 10
378.7406174959873
 20
546.1364893692635
 10
388.7406174959873
 20
551.9099920611597
 10
398.7406174959874
 20
546.1364893692636
 10
398.7406174959874
 20
534.5894839854708
 10
388.7406174959873
 20
528.8159812935746
 10
378.7406174959873
 20
534.5894839854708
  0
LINE
  5
F3
100
AcDbEntity
  8
FILTERS
100
AcDbLine
 10
-477.3219165496206
 20
534.5894839854715
 30
0.0
 11
-467.3219165496228
 21
534.5894839854708
 31
0.0
  0
LINE
  5
F4
100
AcDbEntity
  8
FILTERS
100
AcDbLine
 10
-477.3219165496206
 20
546.1364893692638
 30
0.0
 11
-467.3219165496228
 21
546.1364893692641
 31
0.0
  0
LWPOLYLINE
  5
F5
100
AcDbEntity
  8
FILTERS
100
AcDbPolyline
 90
        4
 70
     1
 43
0.0
 10
-477.3219165496218
 20
551.90999206116
 10
-467.3219165496218
 20
551.90999206116
 10
-467.3219165496218
 20
528.815981293575
 10
-477.3219165496218
 20
528.815981293575
  0
LINE
  5
F6
100
AcDbEntity
  8
FILTERS
  6
CONTINUOUS
 62
     7
100
AcDbLine
 10
-467.3219165496218
 20
471.3629866773676
 30
0.0
 11
-467.3219165496218
 21
565.3629866773664
 31
0.0
  0
LINE
  5
F7
100
AcDbEntity
  8
FILTERS
100
AcDbLine
 10
-467.321916549622
 20
565.3629866773684
 30
0.0
 11
-463.3219165496218
 21
565.3629866773664
 31
0.0
  0
LINE
  5
F8
100
AcDbEntity
  8
FILTERS
100
AcDbLine
 10
-477.3219165496206
 20
484.5894839854715
 30
0.0
 11
-467.3219165496228
 21
484.5894839854709
 31
0.0
  0
LINE
  5
F9
100
AcDbEntity
  8
FILTERS
100
AcDbLine
 10
-477.3219165496206
 20
496.1364893692638
 30
0.0
 11
-467.3219165496228
 21
496.1364893692642
 31
0.0
  0
LWPOLYLINE
  5
FA
100
AcDbEntity
  8
FILTERS
100
AcDbPolyline
 90
        4
 70
     1
 43
0.0
 10
-477.3219165496218
 20
501.90999206116
 10
-467.3219165496218
 20
501.90999206116
 10
-467.3219165496218
 20
478.815981293575
 10
-477.3219165496218
 20
478.815981293575
  0
LINE
  5
FB
100
AcDbEntity
  8
FILTERS
  6
CONTINUOUS
100
AcDbLine
 10
-471.3219165496218
 20
467.3629866773674
 30
0.0
 11
-495.8219165496228
 21
467.3629866773674
 31
0.0
  0
LINE
  5
FC
100
AcDbEntity
  8
FILTERS
  6
CONTINUOUS
100
AcDbLine
 10
-471.3219165496218
 20
463.3629866773674
 30
0.0
 11
-495.8219165496221
 21
463.3629866773674
 31
0.0
  0
LINE
  5
FD
100
AcDbEntity
  8
FILTERS
  6
CONTINUOUS
 62
     7
100
AcDbLine
 10
-499.8219165496212
 20
418.3629866774699
 30
0.0
 11
-499.8219165496215
 21
459.3629866773675
 31
0.0
  0
LINE
  5
FE
100
AcDbEntity
  8
FILTERS
  6
CONTINUOUS
 62
     7
100
AcDbLine
 10
-503.8219165496218
 20
418.3629866774718
 30
0.0
 11
-503.8219165496218
 21
459.3629866773679
 31
0.0
  0
LINE
  5
FF
100
AcDbEntity
  8
FILTERS
  6
CONTINUOUS
100
AcDbLine
 10
371.2406174959868
 20
463.8629866773625
 30
0.0
 11
406.2406174959869
 21
463.8629866773716
 31
0.0
  0
LINE
  5
100
100
AcDbEntity
  8
FILTERS
  6
CONTINUOUS
100
AcDbLine
 10
-551.821916549624
 20
414.3629866774733
 30
0.0
 11
-507.8219165496216
 21
414.3629866774716
 31
0.0
  0
LINE
  5
101
100
AcDbEntity
  8
FILTERS
  6
CONTINUOUS
100
AcDbLine
 10
-551.821916549624
 20
410.3629866774729
 30
0.0
 11
-507.8219165496227
 21
410.3629866774714
 31
0.0
  0
ARC
  5
102
100
AcDbEntity
  8
FILTERS
  6
CONTINUOUS
100
AcDbCircle
 10
-507.8219165496224
 20
418.3629866774698
 30
0.0
 40
7.999999999999999
100
AcDbArc
 50
270.0
 51
0.0
  0
LINE
  5
103
100
AcDbEntity
  8
FILTERS
  6
CONTINUOUS
100
AcDbLine
 10
406.2406174959868
 20
409.8629866774675
 30
0.0
 11
371.2406174959868
 21
409.8629866774826
 31
0.0
  0
LINE
  5
104
100
AcDbEntity
  8
FILTERS
  6
CONTINUOUS
100
AcDbLine
 10
406.2406174959868
 20
413.8629866774676
 30
0.0
 11
371.2406174959868
 21
413.8629866774826
 31
0.0
  0
LINE
  5
105
100
AcDbEntity
  8
FILTERS
100
AcDbLine
 10
-551.8219165496225
 20
410.3629866774709
 30
0.0
 11
-551.8219165496242
 21
414.3629866774727
 31
0.0
  0
LINE
  5
106
100
AcDbEntity
  8
FILTERS
100
AcDbLine
 10
66.96711480409105
 20
722.3992270069174
 30
0.0
 11
66.96711480409051
 21
732.3992270069152
 31
0.0
  0
LINE
  5
107
100
AcDbEntity
  8
FILTERS
100
AcDbLine
 10
78.51412018788337
 20
722.3992270069174
 30
0.0
 11
78.51412018788373
 21
732.3992270069152
 31
0.0
  0
LWPOLYLINE
  5
108
100
AcDbEntity
  8
FILTERS
100
AcDbPolyline
 90
        4
 70
     1
 43
0.0
 10
84.28762287977953
 20
722.3992270069162
 10
84.28762287977953
 20
732.3992270069163
 10
61.19361211219453
 20
732.3992270069163
 10
61.19361211219453
 20
722.3992270069162
  0
LINE
  5
109
100
AcDbEntity
  8
FILTERS
100
AcDbLine
 10
90.24061749598486
 20
646.8992270069161
 30
0.0
 11
90.24061749598621
 21
735.3992270069163
 31
0.0
  0
LINE
  5
10A
100
AcDbEntity
  8
FILTERS
100
AcDbLine
 10
55.24061749598669
 20
646.8992270069161
 30
0.0
 11
55.24061749598793
 21
735.3992270069163
 31
0.0
  0
LINE
  5
10B
100
AcDbEntity
  8
FILTERS
100
AcDbLine
 10
55.24061749598786
 20
732.3992270069164
 30
0.0
 11
90.24061749598606
 21
732.3992270069163
 31
0.0
  0
LINE
  5
10C
100
AcDbEntity
  8
FILTERS
100
AcDbLine
 10
55.24061749598665
 20
646.8992270069161
 30
0.0
 11
90.24061749598477
 21
646.8992270069161
 31
0.0
  0
LINE
  5
10D
100
AcDbEntity
  8
FILTERS
100
AcDbLine
 10
382.9671148040908
 20
722.3992270069177
 30
0.0
 11
382.9671148040903
 21
732.3992270069155
 31
0.0
  0
LINE
  5
10E
100
AcDbEntity
  8
FILTERS
100
AcDbLine
 10
394.5141201878831
 20
722.3992270069177
 30
0.0
 11
394.5141201878835
 21
732.3992270069155
 31
0.0
  0
LWPOLYLINE
  5
10F
100
AcDbEntity
  8
FILTERS
100
AcDbPolyline
 90
        4
 70
     1
 43
0.0
 10
400.2876228797793
 20
722.3992270069163
 10
400.2876228797793
 20
732.3992270069164
 10
377.1936121121943
 20
732.3992270069164
 10
377.1936121121943
 20
722.3992270069163
  0
LINE
  5
110
100
AcDbEntity
  8
FILTERS
100
AcDbLine
 10
406.2406174959846
 20
646.8992270069162
 30
0.0
 11
406.240617495986
 21
735.3992270069165
 31
0.0
  0
LINE
  5
111
100
AcDbEntity
  8
FILTERS
100
AcDbLine
 10
371.2406174959864
 20
646.8992270069162
 30
0.0
 11
371.2406174959877
 21
735.3992270069165
 31
0.0
  0
LINE
  5
112
100
AcDbEntity
  8
FILTERS
100
AcDbLine
 10
371.2406174959876
 20
732.3992270069167
 30
0.0
 11
406.2406174959859
 21
732.3992270069164
 31
0.0
  0
LINE
  5
113
100
AcDbEntity
  8
FILTERS
100
AcDbLine
 10
371.2406174959864
 20
646.8992270069162
 30
0.0
 11
406.2406174959845
 21
646.8992270069162
 31
0.0
  0
ARC
  5
114
100
AcDbEntity
  8
FILTERS
  6
CONTINUOUS
100
AcDbCircle
 10
-471.3219165496218
 20
471.3629866773704
 30
0.0
 40
7.999999999999999
100
AcDbArc
 50
270.0
 51
0.0
  0
ARC
  5
115
100
AcDbEntity
  8
FILTERS
  6
CONTINUOUS
100
AcDbCircle
 10
-507.8219165496214
 20
418.3629866774718
 30
0.0
 40
3.999999999999999
100
AcDbArc
 50
270.0
 51
0.0
  0
ARC
  5
116
100
AcDbEntity
  8
FILTERS
  6
CONTINUOUS
100
AcDbCircle
 10
-471.3219165496217
 20
471.3629866773676
 30
0.0
 40
3.999999999999999
100
AcDbArc
 50
270.0
 51
0.0
  0
ARC
  5
117
100
AcDbEntity
  8
FILTERS
  6
CONTINUOUS
100
AcDbCircle
 10
-495.8219165496221
 20
459.3629866773675
 30
0.0
 40
3.999999999999999
100
AcDbArc
 50
90.00000000000005
 51
180.0
  0
ARC
  5
118
100
AcDbEntity
  8
FILTERS
  6
CONTINUOUS
100
AcDbCircle
 10
-495.8219165496228
 20
459.3629866773679
 30
0.0
 40
7.999999999999999
100
AcDbArc
 50
90.00000000000005
 51
180.0
  0
LWPOLYLINE
  5
119
100
AcDbEntity
  8
FILTERS
100
AcDbPolyline
 90
        4
 70
     1
 43
0.0
 10
-499.3219165496165
 20
243.8629866773673
 10
-495.3219165496165
 20
243.8629866773673
 10
-495.3219165496165
 20
273.8629866773673
 10
-499.3219165496165
 20
273.8629866773673
  0
LINE
  5
11A
100
AcDbEntity
  8
FILTERS
100
AcDbLine
 10
-495.3219165496165
 20
243.8629866773673
 30
0.0
 11
-459.1265096121011
 21
243.8629866773672
 31
0.0
  0
LINE
  5
11B
100
AcDbEntity
  8
FILTERS
100
AcDbLine
 10
-495.3219165496165
 20
273.8629866773673
 30
0.0
 11
-459.1265096121012
 21
273.8629866773672
 31
0.0
  0
LINE
  5
11C
100
AcDbEntity
  8
FILTERS
100
AcDbLine
 10
-459.1265096121014
 20
243.8629866773672
 30
0.0
 11
-459.1265096121014
 21
273.8629866773672
 31
0.0
  0
LINE
  5
11D
100
AcDbEntity
  8
ARMOUR
  6
CONTINUOUS
 62
     7
100
AcDbLine
 10
-519.3219165496208
 20
101.9136990229189
 30
0.0
 11
-519.3219165496237
 21
390.3629866774733
 31
0.0
  0
LINE
  5
11E
100
AcDbEntity
  8
ARMOUR
  6
CONTINUOUS
 62
     7
100
AcDbLine
 10
-599.3219165496228
 20
174.9627334012348
 30
0.0
 11
-599.3219165496199
 21
334.7211910461073
 31
0.0
  0
LINE
  5
11F
100
AcDbEntity
  8
ARMOUR
  6
CONTINUOUS
100
AcDbLine
 10
-599.3219165496141
 20
334.7211910460994
 30
0.0
 11
-559.8143829258153
 21
340.9785696477161
 31
0.0
  0
LINE
  5
120
100
AcDbEntity
  8
ARMOUR
  6
CONTINUOUS
100
AcDbLine
 10
-559.8143829258153
 20
340.9785696477168
 30
0.0
 11
-567.6361061778262
 21
390.3629866774733
 31
0.0
  0
LINE
  5
121
100
AcDbEntity
  8
ARMOUR
  6
CONTINUOUS
100
AcDbLine
 10
-567.6361061778262
 20
390.3629866774733
 30
0.0
 11
-519.3219165496237
 21
390.3629866774733
 31
0.0
  0
LINE
  5
122
100
AcDbEntity
  8
ARMOUR
  6
CONTINUOUS
100
AcDbLine
 10
-563.7252445517746
 20
365.6707781626748
 30
0.0
 11
-519.3219165496237
 21
372.7035744167683
 31
0.0
  0
LINE
  5
123
100
AcDbEntity
  8
ARMOUR
  6
CONTINUOUS
100
AcDbLine
 10
-519.3219165496237
 20
390.3629866774733
 30
0.0
 11
-519.3219165496237
 21
410.3629866774731
 31
0.0
  0
LINE
  5
124
100
AcDbEntity
  8
ARMOUR
  6
CONTINUOUS
100
AcDbLine
 10
-519.3219165496237
 20
410.3629866774731
 30
0.0
 11
-554.3219165496243
 21
410.3629866774731
 31
0.0
  0
LINE
  5
125
100
AcDbEntity
  8
ARMOUR
  6
CONTINUOUS
100
AcDbLine
 10
-554.3219165496243
 20
410.3629866774731
 30
0.0
 11
-554.3219165496243
 21
390.3629866774155
 31
0.0
  0
LWPOLYLINE
  5
126
100
AcDbEntity
  8
ARMOUR
  6
CONTINUOUS
100
AcDbPolyline
 90
        4
 70
     1
 43
0.0
 10
-519.3219165496323
 20
240.7007287968275
 10
-499.3219165496166
 20
240.7007287968275
 10
-499.3219165496166
 20
275.7007287967705
 10
-519.3219165496323
 20
275.7007287967705
  0
LINE
  5
127
100
AcDbEntity
  8
FILTERS
100
AcDbLine
 10
-39.25938250401293
 20
243.8629866774238
 30
0.0
 11
72.74061749598633
 21
243.8629866774236
 31
0.0
  0
LINE
  5
128
100
AcDbEntity
  8
FILTERS
100
AcDbLine
 10
-39.25938250401293
 20
273.8629866773667
 30
0.0
 11
72.7406174959847
 21
273.8629866773674
 31
0.0
  0
LINE
  5
129
100
AcDbEntity
  8
FILTERS
  6
CONTINUOUS
100
AcDbLine
 10
-39.25938250401275
 20
243.8629866774238
 30
0.0
 11
-39.25938250401329
 21
273.862986677367
 31
0.0
  0
LINE
  5
12A
100
AcDbEntity
  8
FILTERS
  6
CONTINUOUS
100
AcDbLine
 10
72.74061749598686
 20
243.8629866774236
 30
0.0
 11
72.74061749598523
 21
273.8629866773671
 31
0.0
  0
LINE
  5
12B
100
AcDbEntity
  8
FILTERS
100
AcDbLine
 10
-24.25938250401327
 20
252.8629866773951
 30
0.0
 11
-14.2593825040132
 21
252.8629866773951
 31
0.0
  0
LINE
  5
12C
100
AcDbEntity
  8
FILTERS
100
AcDbLine
 10
-14.2593825040132
 20
264.8629866773951
 30
0.0
 11
-24.25938250401327
 21
264.8629866773951
 31
0.0
  0
ARC
  5
12D
100
AcDbEntity
  8
FILTERS
100
AcDbCircle
 10
-14.2593825040132
 20
258.8629866773952
 30
0.0
 40
6.0
100
AcDbArc
 50
269.9999999999999
 51
89.99999999999992
  0
ARC
  5
12E
100
AcDbEntity
  8
FILTERS
100
AcDbCircle
 10
-24.25938250401327
 20
258.8629866773952
 30
0.0
 40
6.0
100
AcDbArc
 50
89.99999999999991
 51
269.9999999999999
  0
LINE
  5
12F
100
AcDbEntity
  8
FILTERS
100
AcDbLine
 10
500.7406174959867
 20
29.53496281405345
 30
0.0
 11
451.3147362060344
 21
29.53496281405336
 31
0.0
  0
LINE
  5
130
100
AcDbEntity
  8
FILTERS
  6
CONTINUOUS
100
AcDbLine
 10
500.7406174959861
 20
33.53496281405417
 30
0.0
 11
500.7406174959871
 21
29.53496281405309
 31
0.0
  0
LINE
  5
131
100
AcDbEntity
  8
FILTERS
100
AcDbLine
 10
500.7406174959867
 20
33.53496281405344
 30
0.0
 11
451.3147362060344
 21
33.53496281405336
 31
0.0
  0
LINE
  5
132
100
AcDbEntity
  8
FILTERS
100
AcDbLine
 10
449.5826853984657
 20
28.53496281405341
 30
0.0
 11
428.6852574596599
 21
-7.660444123467693
 31
0.0
  0
LINE
  5
133
100
AcDbEntity
  8
FILTERS
100
AcDbLine
 10
446.1185837833278
 20
30.53496281405323
 30
0.0
 11
425.2211558445232
 21
-5.660444123467923
 31
0.0
  0
ARC
  5
134
100
AcDbEntity
  8
FILTERS
100
AcDbCircle
 10
451.3147362060344
 20
27.53496281405345
 30
0.0
 40
1.999999999999999
100
AcDbArc
 50
89.99999999999994
 51
149.9999999999997
  0
ARC
  5
135
100
AcDbEntity
  8
FILTERS
100
AcDbCircle
 10
451.3147362060344
 20
27.53496281405345
 30
0.0
 40
6.0
100
AcDbArc
 50
89.99999999999994
 51
150.0000000000004
  0
LINE
  5
136
100
AcDbEntity
  8
FILTERS
  6
CONTINUOUS
 62
     7
100
AcDbLine
 10
-67.25938250401306
 20
245.3629866773674
 30
0.0
 11
-39.25938250401184
 21
245.3629866773675
 31
0.0
  0
LINE
  5
137
100
AcDbEntity
  8
FILTERS
  6
CONTINUOUS
 62
     7
100
AcDbLine
 10
72.74061749598704
 20
245.3629866773674
 30
0.0
 11
212.7406174959869
 21
245.3629866773674
 31
0.0
  0
LINE
  5
138
100
AcDbEntity
  8
FILTERS
  6
CONTINUOUS
 62
     7
100
AcDbLine
 10
248.7406174959871
 20
245.3629866773674
 30
0.0
 11
248.7406174959871
 21
274.3629866773674
 31
0.0
  0
LINE
  5
139
100
AcDbEntity
  8
FILTERS
  6
CONTINUOUS
 62
     7
100
AcDbLine
 10
528.7406174959869
 20
245.3629866773673
 30
0.0
 11
528.7406174959876
 21
274.3629866773672
 31
0.0
  0
LINE
  5
13A
100
AcDbEntity
  8
FILTERS
100
AcDbLine
 10
500.7406174959867
 20
243.8629866774236
 30
0.0
 11
388.7406174959875
 21
243.8629866774235
 31
0.0
  0
LINE
  5
13B
100
AcDbEntity
  8
FILTERS
100
AcDbLine
 10
500.7406174959867
 20
273.8629866773665
 30
0.0
 11
388.7406174959891
 21
273.8629866773673
 31
0.0
  0
LINE
  5
13C
100
AcDbEntity
  8
FILTERS
  6
CONTINUOUS
100
AcDbLine
 10
500.7406174959866
 20
243.8629866774236
 30
0.0
 11
500.7406174959871
 21
273.8629866773668
 31
0.0
  0
LINE
  5
13D
100
AcDbEntity
  8
FILTERS
  6
CONTINUOUS
100
AcDbLine
 10
388.740617495987
 20
243.8629866774234
 30
0.0
 11
388.7406174959886
 21
273.862986677367
 31
0.0
  0
LINE
  5
13E
100
AcDbEntity
  8
FILTERS
100
AcDbLine
 10
485.7406174959871
 20
252.862986677395
 30
0.0
 11
475.7406174959871
 21
252.862986677395
 31
0.0
  0
LINE
  5
13F
100
AcDbEntity
  8
FILTERS
100
AcDbLine
 10
475.7406174959871
 20
264.862986677395
 30
0.0
 11
485.7406174959871
 21
264.862986677395
 31
0.0
  0
ARC
  5
140
100
AcDbEntity
  8
FILTERS
100
AcDbCircle
 10
475.7406174959871
 20
258.862986677395
 30
0.0
 40
6.0
100
AcDbArc
 50
90.0
 51
270.0
  0
ARC
  5
141
100
AcDbEntity
  8
FILTERS
100
AcDbCircle
 10
485.7406174959871
 20
258.862986677395
 30
0.0
 40
6.0
100
AcDbArc
 50
270.0
 51
90.00000000000007
  0
LINE
  5
142
100
AcDbEntity
  8
FILTERS
  6
CONTINUOUS
 62
     7
100
AcDbLine
 10
528.7406174959869
 20
245.3629866773672
 30
0.0
 11
500.7406174959856
 21
245.3629866773673
 31
0.0
  0
LINE
  5
143
100
AcDbEntity
  8
FILTERS
  6
CONTINUOUS
 62
     7
100
AcDbLine
 10
388.7406174959868
 20
245.3629866773673
 30
0.0
 11
248.7406174959868
 21
245.3629866773674
 31
0.0
  0
ARC
  5
144
100
AcDbEntity
  8
FILTERS
100
AcDbCircle
 10
388.7406174959871
 20
-146.4650371859469
 30
0.0
 40
143.9999999999999
100
AcDbArc
 50
76.23127425828963
 51
89.99999999999994
  0
ARC
  5
145
100
AcDbEntity
  8
FILTERS
100
AcDbCircle
 10
423.4891050369544
 20
-4.660444123468015
 30
0.0
 40
1.999999999999999
100
AcDbArc
 50
256.2312742582895
 51
329.9999999999998
  0
LINE
  5
146
100
AcDbEntity
  8
FILTERS
100
AcDbLine
 10
388.7406174959873
 20
-2.46503718594694
 30
0.0
 11
388.7406174959873
 21
-6.465037185946933
 31
0.0
  0
ARC
  5
147
100
AcDbEntity
  8
FILTERS
100
AcDbCircle
 10
423.4891050369533
 20
-4.660444123467744
 30
0.0
 40
6.0
100
AcDbArc
 50
256.23127425829
 51
329.9999999999999
  0
ARC
  5
148
100
AcDbEntity
  8
FILTERS
  6
CONTINUOUS
100
AcDbCircle
 10
388.740617495987
 20
-146.4650371859469
 30
0.0
 40
155.9999999999999
100
AcDbArc
 50
74.40515754143468
 51
89.99999999999994
  0
ARC
  5
149
100
AcDbEntity
  8
FILTERS
  6
CONTINUOUS
100
AcDbCircle
 10
388.740617495987
 20
-146.4650371859469
 30
0.0
 40
155.9999999999999
100
AcDbArc
 50
269.9999999999998
 51
72.89329528591851
  0
CIRCLE
  5
14A
100
AcDbEntity
  8
FILTERS
100
AcDbCircle
 10
388.7406174959871
 20
-146.4650371859469
 30
0.0
 40
140.0
  0
LINE
  5
14B
100
AcDbEntity
  8
FILTERS
100
AcDbLine
 10
-39.25938250401239
 20
29.53496281405345
 30
0.0
 11
10.16649878593995
 21
29.53496281405336
 31
0.0
  0
LINE
  5
14C
100
AcDbEntity
  8
FILTERS
  6
CONTINUOUS
100
AcDbLine
 10
-39.25938250401176
 20
33.53496281405417
 30
0.0
 11
-39.25938250401275
 21
29.53496281405309
 31
0.0
  0
LINE
  5
14D
100
AcDbEntity
  8
FILTERS
100
AcDbLine
 10
-39.25938250401239
 20
33.53496281405344
 30
0.0
 11
10.16649878593995
 21
33.53496281405336
 31
0.0
  0
LINE
  5
14E
100
AcDbEntity
  8
FILTERS
100
AcDbLine
 10
11.89854959350872
 20
28.53496281405341
 30
0.0
 11
32.79597753231449
 21
-7.660444123467693
 31
0.0
  0
LINE
  5
14F
100
AcDbEntity
  8
FILTERS
100
AcDbLine
 10
15.36265120864655
 20
30.53496281405323
 30
0.0
 11
36.26007914745113
 21
-5.660444123467923
 31
0.0
  0
ARC
  5
150
100
AcDbEntity
  8
FILTERS
100
AcDbCircle
 10
10.16649878593995
 20
27.53496281405345
 30
0.0
 40
1.999999999999999
100
AcDbArc
 50
30.00000000000027
 51
90.00000000000005
  0
ARC
  5
151
100
AcDbEntity
  8
FILTERS
100
AcDbCircle
 10
10.16649878593995
 20
27.53496281405345
 30
0.0
 40
6.0
100
AcDbArc
 50
29.99999999999955
 51
90.00000000000005
  0
ARC
  5
152
100
AcDbEntity
  8
FILTERS
100
AcDbCircle
 10
72.74061749598722
 20
-146.4650371859469
 30
0.0
 40
143.9999999999999
100
AcDbArc
 50
90.00000000000005
 51
103.7687257417103
  0
ARC
  5
153
100
AcDbEntity
  8
FILTERS
100
AcDbCircle
 10
37.99212995502
 20
-4.660444123468015
 30
0.0
 40
1.999999999999999
100
AcDbArc
 50
210.0000000000001
 51
283.7687257417103
  0
LINE
  5
154
100
AcDbEntity
  8
FILTERS
100
AcDbLine
 10
72.74061749598714
 20
-2.46503718594694
 30
0.0
 11
72.74061749598714
 21
-6.465037185946933
 31
0.0
  0
ARC
  5
155
100
AcDbEntity
  8
FILTERS
100
AcDbCircle
 10
37.99212995502108
 20
-4.660444123467744
 30
0.0
 40
6.0
100
AcDbArc
 50
210.0
 51
283.7687257417099
  0
ARC
  5
156
100
AcDbEntity
  8
FILTERS
  6
CONTINUOUS
100
AcDbCircle
 10
72.74061749598709
 20
-146.465037185947
 30
0.0
 40
155.9999999999999
100
AcDbArc
 50
107.1067047140813
 51
269.9999999999999
  0
ARC
  5
157
100
AcDbEntity
  8
FILTERS
  6
CONTINUOUS
100
AcDbCircle
 10
72.74061749598709
 20
-146.465037185947
 30
0.0
 40
155.9999999999999
100
AcDbArc
 50
89.99999999999994
 51
105.5948424585652
  0
CIRCLE
  5
158
100
AcDbEntity
  8
FILTERS
100
AcDbCircle
 10
72.74061749598702
 20
660.6490001464735
 30
0.0
 40
7.499999999999999
  0
CIRCLE
  5
159
100
AcDbEntity
  8
FILTERS
100
AcDbCircle
 10
388.7406174959868
 20
660.6490001464736
 30
0.0
 40
7.499999999999999
  0
LINE
  5
15A
100
AcDbEntity
  8
FILTERS
100
AcDbLine
 10
394.7406174959868
 20
722.3992270069163
 30
0.0
 11
394.7406174959868
 21
714.1323768684664
 31
0.0
  0
LINE
  5
15B
100
AcDbEntity
  8
FILTERS
100
AcDbLine
 10
382.7406174959868
 20
722.3992270069163
 30
0.0
 11
382.7406174959868
 21
714.1323768684664
 31
0.0
  0
ARC
  5
15C
100
AcDbEntity
  8
FILTERS
100
AcDbCircle
 10
388.7406174959869
 20
723.6515166409203
 30
0.0
 40
11.2522896340041
100
AcDbArc
 50
237.776397702039
 51
302.2236022979605
  0
LINE
  5
15D
100
AcDbEntity
  8
FILTERS
100
AcDbLine
 10
78.74061749598697
 20
722.3992270069163
 30
0.0
 11
78.74061749598697
 21
714.1323768684664
 31
0.0
  0
LINE
  5
15E
100
AcDbEntity
  8
FILTERS
100
AcDbLine
 10
66.74061749598698
 20
722.3992270069163
 30
0.0
 11
66.74061749598698
 21
714.1323768684664
 31
0.0
  0
ARC
  5
15F
100
AcDbEntity
  8
FILTERS
100
AcDbCircle
 10
72.74061749598702
 20
723.6515166409203
 30
0.0
 40
11.2522896340041
100
AcDbArc
 50
237.776397702039
 51
302.2236022979605
  0
LINE
  5
160
100
AcDbEntity
  8
FILTERS
100
AcDbLine
 10
-477.3219165496226
 20
546.3629866773675
 30
0.0
 11
-485.5887666880726
 21
546.3629866773675
 31
0.0
  0
LINE
  5
161
100
AcDbEntity
  8
FILTERS
100
AcDbLine
 10
-477.3219165496226
 20
534.3629866773675
 30
0.0
 11
-485.5887666880726
 21
534.3629866773675
 31
0.0
  0
ARC
  5
162
100
AcDbEntity
  8
FILTERS
100
AcDbCircle
 10
-476.0696269156187
 20
540.3629866773675
 30
0.0
 40
11.2522896340041
100
AcDbArc
 50
147.7763977020394
 51
212.223602297961
  0
LINE
  5
163
100
AcDbEntity
  8
FILTERS
100
AcDbLine
 10
-477.3219165496226
 20
496.3629866773676
 30
0.0
 11
-485.5887666880726
 21
496.3629866773676
 31
0.0
  0
LINE
  5
164
100
AcDbEntity
  8
FILTERS
100
AcDbLine
 10
-477.3219165496226
 20
484.3629866773675
 30
0.0
 11
-485.5887666880726
 21
484.3629866773675
 31
0.0
  0
ARC
  5
165
100
AcDbEntity
  8
FILTERS
100
AcDbCircle
 10
-476.0696269156187
 20
490.3629866773676
 30
0.0
 40
11.2522896340041
100
AcDbArc
 50
147.7763977020394
 51
212.223602297961
  0
LINE
  5
166
100
AcDbEntity
  8
FILTERS
  6
CONTINUOUS
 62
     7
100
AcDbLine
 10
90.2406174959874
 20
409.8629866773457
 30
0.0
 11
90.24061749598685
 21
565.3629866773666
 31
0.0
  0
LINE
  5
167
100
AcDbEntity
  8
FILTERS
  6
CONTINUOUS
 62
     7
100
AcDbLine
 10
55.24061749598723
 20
409.8629866773306
 30
0.0
 11
55.24061749598651
 21
565.3629866773666
 31
0.0
  0
LINE
  5
168
100
AcDbEntity
  8
FILTERS
  6
CONTINUOUS
 62
     7
100
AcDbLine
 10
55.24061749598669
 20
565.3629866773672
 30
0.0
 11
90.24061749598667
 21
565.3629866773672
 31
0.0
  0
LINE
  5
169
100
AcDbEntity
  8
FILTERS
  6
CONTINUOUS
100
AcDbLine
 10
88.32907476410639
 20
546.3629866773678
 30
0.0
 11
90.24061749598667
 21
546.3629866773678
 31
0.0
  0
LINE
  5
16A
100
AcDbEntity
  8
FILTERS
  6
CONTINUOUS
100
AcDbLine
 10
88.32907476410658
 20
534.3629866773677
 30
0.0
 11
90.24061749598667
 21
534.3629866773677
 31
0.0
  0
ARC
  5
16B
100
AcDbEntity
  8
FILTERS
100
AcDbCircle
 10
72.7406174959865
 20
540.3629866773671
 30
0.0
 40
15.0
100
AcDbArc
 50
30.00000000000119
 51
330.0000000000007
  0
ARC
  5
16C
100
AcDbEntity
  8
FILTERS
100
AcDbCircle
 10
88.32907476410621
 20
549.3629866773675
 30
0.0
 40
3.0
100
AcDbArc
 50
210.0000000000011
 51
270.0000000000001
  0
ARC
  5
16D
100
AcDbEntity
  8
FILTERS
  6
CONTINUOUS
100
AcDbCircle
 10
88.32907476410658
 20
531.3629866773673
 30
0.0
 40
3.0
100
AcDbArc
 50
90.00000000000017
 51
150.0000000000009
  0
LINE
  5
16E
100
AcDbEntity
  8
FILTERS
  6
CONTINUOUS
100
AcDbLine
 10
88.32907476410639
 20
496.3629866773679
 30
0.0
 11
90.24061749598667
 21
496.3629866773679
 31
0.0
  0
LINE
  5
16F
100
AcDbEntity
  8
FILTERS
  6
CONTINUOUS
100
AcDbLine
 10
88.32907476410694
 20
484.3629866773678
 30
0.0
 11
90.24061749598685
 21
484.3629866773678
 31
0.0
  0
ARC
  5
170
100
AcDbEntity
  8
FILTERS
100
AcDbCircle
 10
72.74061749598669
 20
490.3629866773672
 30
0.0
 40
15.0
100
AcDbArc
 50
30.00000000000119
 51
330.0000000000007
  0
ARC
  5
171
100
AcDbEntity
  8
FILTERS
100
AcDbCircle
 10
88.32907476410639
 20
499.3629866773676
 30
0.0
 40
3.0
100
AcDbArc
 50
210.0000000000011
 51
270.0000000000001
  0
ARC
  5
172
100
AcDbEntity
  8
FILTERS
  6
CONTINUOUS
100
AcDbCircle
 10
88.32907476410694
 20
481.3629866773675
 30
0.0
 40
3.0
100
AcDbArc
 50
90.00000000000017
 51
150.0000000000009
  0
CIRCLE
  5
173
100
AcDbEntity
  8
FILTERS
100
AcDbCircle
 10
72.74061749598669
 20
490.3629866773672
 30
0.0
 40
6.0
  0
CIRCLE
  5
174
100
AcDbEntity
  8
FILTERS
100
AcDbCircle
 10
72.7406174959865
 20
540.3629866773671
 30
0.0
 40
6.0
  0
LWPOLYLINE
  5
175
100
AcDbEntity
  8
FILTERS
100
AcDbPolyline
 90
        6
 70
     1
 43
0.0
 10
82.74061749598676
 20
496.1364893692636
 10
72.74061749598669
 20
501.9099920611599
 10
62.74061749598661
 20
496.1364893692636
 10
62.74061749598661
 20
484.589483985471
 10
72.74061749598669
 20
478.8159812935746
 10
82.74061749598676
 20
484.5894839854709
  0
LWPOLYLINE
  5
176
100
AcDbEntity
  8
FILTERS
100
AcDbPolyline
 90
        6
 70
     1
 43
0.0
 10
82.74061749598656
 20
546.1364893692635
 10
72.7406174959865
 20
551.9099920611597
 10
62.74061749598643
 20
546.1364893692636
 10
62.74061749598643
 20
534.5894839854708
 10
72.7406174959865
 20
528.8159812935746
 10
82.74061749598656
 20
534.5894839854708
  0
LINE
  5
177
100
AcDbEntity
  8
FILTERS
  6
CONTINUOUS
100
AcDbLine
 10
90.24061749598704
 20
463.8629866773625
 30
0.0
 11
55.24061749598687
 21
463.8629866773716
 31
0.0
  0
LINE
  5
178
100
AcDbEntity
  8
FILTERS
  6
CONTINUOUS
100
AcDbLine
 10
55.24061749598705
 20
409.8629866774675
 30
0.0
 11
90.24061749598704
 21
409.8629866774826
 31
0.0
  0
LINE
  5
179
100
AcDbEntity
  8
FILTERS
  6
CONTINUOUS
100
AcDbLine
 10
55.24061749598705
 20
413.8629866774676
 30
0.0
 11
90.24061749598704
 21
413.8629866774826
 31
0.0
  0
LINE
  5
17A
100
AcDbEntity
  8
FILTERS
100
AcDbLine
 10
-160.3219165496219
 20
386.862986677368
 30
0.0
 11
-167.3219165496222
 21
386.8629866773687
 31
0.0
  0
LINE
  5
17B
100
AcDbEntity
  8
FILTERS
100
AcDbLine
 10
-160.3219165496219
 20
281.8629866773687
 30
0.0
 11
-167.3219165496221
 21
281.8629866773687
 31
0.0
  0
LWPOLYLINE
  5
17C
100
AcDbEntity
  8
FILTERS
100
AcDbPolyline
 90
        6
 70
     1
 43
0.0
 10
-152.3219165496219
 20
278.8629866773675
 42
0.4142135623731013
 10
-150.3219165496219
 20
280.8629866773675
 10
-150.3219165496223
 20
387.8629866773704
 42
0.4142135623731013
 10
-152.3219165496223
 20
389.8629866773703
 10
-160.321916549622
 20
389.8629866773676
 10
-160.321916549622
 20
278.8629866773676
  0
ARC
  5
17D
100
AcDbEntity
  8
FILTERS
100
AcDbCircle
 10
-655.571916549634
 20
334.3629866773675
 30
0.0
 40
507.2500000000121
100
AcDbArc
 50
354.9103912403741
 51
5.089608759626313
  0
ENDSEC
  0
SECTION
  2
OBJECTS
  0
DICTIONARY
  5
C
100
AcDbDictionary
  3
ACAD_GROUP
350
D
  3
ACAD_MLINESTYLE
350
1B
  3
ACDBVARIABLEDICTIONARY
350
1E
  0
DICTIONARY
  5
D
102
{ACAD_REACTORS
330
C
102
}
100
AcDbDictionary
  0
DICTIONARY
  5
1B
102
{ACAD_REACTORS
330
C
102
}
100
AcDbDictionary
  3
STANDARD
350
1C
  0
DICTIONARY
  5
1E
102
{ACAD_REACTORS
330
C
102
}
100
AcDbDictionary
  3
DIMADEC
350
1F
  0
MLINESTYLE
  5
1C
102
{ACAD_REACTORS
330
1B
102
}
100
AcDbMlineStyle
  2
STANDARD
 70
     0
  3

 62
   256
 51
90.0
 52
90.0
 71
     2
 49
0.5
 62
   256
  6
BYLAYER
 49
-0.5
 62
   256
  6
BYLAYER
  0
DICTIONARYVAR
  5
1F
102
{ACAD_REACTORS
330
1E
102
}
100
DictionaryVariables
280
     0
  1
-1
  0
ENDSEC
  0
EOF
