  0
SECTION
  2
HEADER
  9
$ACADVER
  1
AC1014
  9
$ACADMAINTVER
 70
     5
  9
$DWGCODEPAGE
  3
ANSI_1252
  9
$INSBASE
 10
0.0
 20
0.0
 30
0.0
  9
$EXTMIN
 10
1.000000000000000E+20
 20
1.000000000000000E+20
 30
1.000000000000000E+20
  9
$EXTMAX
 10
-1.000000000000000E+20
 20
-1.000000000000000E+20
 30
-1.000000000000000E+20
  9
$LIMMIN
 10
0.0
 20
0.0
  9
$LIMMAX
 10
12.0
 20
9.0
  9
$ORTHOMODE
 70
     0
  9
$REGENMODE
 70
     1
  9
$FILLMODE
 70
     1
  9
$QTEXTMODE
 70
     0
  9
$MIRRTEXT
 70
     1
  9
$DRAGMODE
 70
     2
  9
$LTSCALE
 40
1.0
  9
$OSMODE
 70
     0
  9
$ATTMODE
 70
     0
  9
$TEXTSIZE
 40
269.081152725242
  9
$TRACEWID
 40
0.05
  9
$TEXTSTYLE
  7
STANDARD
  9
$CLAYER
  8
0
  9
$CELTYPE
  6
BYLAYER
  9
$CECOLOR
 62
   256
  9
$CELTSCALE
 40
1.0
  9
$DELOBJ
 70
     1
  9
$DISPSILH
 70
     0
  9
$DIMSCALE
 40
1.0
  9
$DIMASZ
 40
0.18
  9
$DIMEXO
 40
0.0625
  9
$DIMDLI
 40
0.38
  9
$DIMRND
 40
0.0
  9
$DIMDLE
 40
0.0
  9
$DIMEXE
 40
0.18
  9
$DIMTP
 40
0.0
  9
$DIMTM
 40
0.0
  9
$DIMTXT
 40
0.2118749234057024
  9
$DIMCEN
 40
0.09
  9
$DIMTSZ
 40
0.0
  9
$DIMTOL
 70
     0
  9
$DIMLIM
 70
     0
  9
$DIMTIH
 70
     1
  9
$DIMTOH
 70
     1
  9
$DIMSE1
 70
     0
  9
$DIMSE2
 70
     0
  9
$DIMTAD
 70
     0
  9
$DIMZIN
 70
     0
  9
$DIMBLK
  1

  9
$DIMASO
 70
     1
  9
$DIMSHO
 70
     1
  9
$DIMPOST
  1

  9
$DIMAPOST
  1

  9
$DIMALT
 70
     0
  9
$DIMALTD
 70
     2
  9
$DIMALTF
 40
25.4
  9
$DIMLFAC
 40
1.0
  9
$DIMTOFL
 70
     0
  9
$DIMTVP
 40
0.0
  9
$DIMTIX
 70
     0
  9
$DIMSOXD
 70
     0
  9
$DIMSAH
 70
     0
  9
$DIMBLK1
  1

  9
$DIMBLK2
  1

  9
$DIMSTYLE
  2
STANDARD
  9
$DIMCLRD
 70
     0
  9
$DIMCLRE
 70
     0
  9
$DIMCLRT
 70
     0
  9
$DIMTFAC
 40
1.0
  9
$DIMGAP
 40
0.09
  9
$DIMJUST
 70
     0
  9
$DIMSD1
 70
     0
  9
$DIMSD2
 70
     0
  9
$DIMTOLJ
 70
     1
  9
$DIMTZIN
 70
     0
  9
$DIMALTZ
 70
     0
  9
$DIMALTTZ
 70
     0
  9
$DIMFIT
 70
     3
  9
$DIMUPT
 70
     0
  9
$DIMUNIT
 70
     4
  9
$DIMDEC
 70
    -1
  9
$DIMTDEC
 70
     4
  9
$DIMALTU
 70
     2
  9
$DIMALTTD
 70
     2
  9
$DIMTXSTY
  7
STANDARD
  9
$DIMAUNIT
 70
     1
  9
$LUNITS
 70
     2
  9
$LUPREC
 70
     1
  9
$SKETCHINC
 40
0.1
  9
$FILLETRAD
 40
1.999999999999999
  9
$AUNITS
 70
     0
  9
$AUPREC
 70
     2
  9
$MENU
  1
.
  9
$ELEVATION
 40
0.0
  9
$PELEVATION
 40
0.0
  9
$THICKNESS
 40
0.0
  9
$LIMCHECK
 70
     0
  9
$BLIPMODE
 70
     0
  9
$CHAMFERA
 40
3.0
  9
$CHAMFERB
 40
3.0
  9
$CHAMFERC
 40
0.0
  9
$CHAMFERD
 40
0.0
  9
$SKPOLY
 70
     0
  9
$TDCREATE
 40
0.0000000000
  9
$TDUPDATE
 40
0.0000000000
  9
$TDINDWG
 40
0.0000000000
  9
$TDUSRTIMER
 40
0.0000000000
  9
$USRTIMER
 70
     1
  9
$ANGBASE
 50
0.0
  9
$ANGDIR
 70
     0
  9
$PDMODE
 70
     0
  9
$PDSIZE
 40
0.0
  9
$PLINEWID
 40
0.0
  9
$COORDS
 70
     1
  9
$SPLFRAME
 70
     0
  9
$SPLINETYPE
 70
     6
  9
$SPLINESEGS
 70
     8
  9
$ATTDIA
 70
     0
  9
$ATTREQ
 70
     1
  9
$HANDLING
 70
     1
  9
$HANDSEED
  5
DF
  9
$SURFTAB1
 70
     6
  9
$SURFTAB2
 70
     6
  9
$SURFTYPE
 70
     6
  9
$SURFU
 70
     6
  9
$SURFV
 70
     6
  9
$UCSNAME
  2

  9
$UCSORG
 10
0.0
 20
0.0
 30
0.0
  9
$UCSXDIR
 10
1.0
 20
0.0
 30
0.0
  9
$UCSYDIR
 10
0.0
 20
1.0
 30
0.0
  9
$PUCSNAME
  2

  9
$PUCSORG
 10
0.0
 20
0.0
 30
0.0
  9
$PUCSXDIR
 10
1.0
 20
0.0
 30
0.0
  9
$PUCSYDIR
 10
0.0
 20
1.0
 30
0.0
  9
$USERI1
 70
     0
  9
$USERI2
 70
     0
  9
$USERI3
 70
     0
  9
$USERI4
 70
     0
  9
$USERI5
 70
     0
  9
$USERR1
 40
0.0
  9
$USERR2
 40
0.0
  9
$USERR3
 40
0.0
  9
$USERR4
 40
0.0
  9
$USERR5
 40
0.0
  9
$WORLDVIEW
 70
     1
  9
$SHADEDGE
 70
     3
  9
$SHADEDIF
 70
    70
  9
$TILEMODE
 70
     1
  9
$MAXACTVP
 70
    48
  9
$PINSBASE
 10
0.0
 20
0.0
 30
0.0
  9
$PLIMCHECK
 70
     0
  9
$PEXTMIN
 10
1.000000000000000E+20
 20
1.000000000000000E+20
 30
1.000000000000000E+20
  9
$PEXTMAX
 10
-1.000000000000000E+20
 20
-1.000000000000000E+20
 30
-1.000000000000000E+20
  9
$PLIMMIN
 10
0.0
 20
0.0
  9
$PLIMMAX
 10
12.0
 20
9.0
  9
$UNITMODE
 70
     0
  9
$VISRETAIN
 70
     1
  9
$PLINEGEN
 70
     0
  9
$PSLTSCALE
 70
     1
  9
$TREEDEPTH
 70
  3020
  9
$PICKSTYLE
 70
     1
  9
$CMLSTYLE
  2
STANDARD
  9
$CMLJUST
 70
     0
  9
$CMLSCALE
 40
1.0
  9
$PROXYGRAPHICS
 70
     1
  9
$MEASUREMENT
 70
     0
  0
ENDSEC
  0
SECTION
  2
CLASSES
  0
CLASS
  1
DICTIONARYVAR
  2
AcDbDictionaryVar
  3
"AutoCAD"
 90
        0
280
     0
281
     0
  0
CLASS
  1
LWPOLYLINE
  2
AcDbPolyline
  3
"AutoCAD"
 90
        0
280
     0
281
     1
  0
ENDSEC
  0
SECTION
  2
TABLES
  0
TABLE
  2
VPORT
  5
8
100
AcDbSymbolTable
 70
     1
  0
VPORT
  5
11
100
AcDbSymbolTableRecord
100
AcDbViewportTableRecord
  2
*ACTIVE
 70
     0
 10
0.0
 20
0.0
 11
1.0
 21
1.0
 12
3.6
 22
4.5
 13
0.0
 23
0.0
 14
1.0
 24
1.0
 15
0.0
 25
0.0
 16
0.0
 26
0.0
 36
1.0
 17
0.0
 27
0.0
 37
0.0
 40
15.0
 41
0.8
 42
50.0
 43
0.0
 44
0.0
 50
0.0
 51
0.0
 71
     0
 72
   100
 73
     1
 74
     1
 75
     0
 76
     0
 77
     0
 78
     0
  0
ENDTAB
  0
TABLE
  2
LTYPE
  5
5
100
AcDbSymbolTable
 70
    40
  0
LTYPE
  5
12
100
AcDbSymbolTableRecord
100
AcDbLinetypeTableRecord
  2
BYBLOCK
 70
     0
  3

 72
    65
 73
     0
 40
0.0
  0
LTYPE
  5
13
100
AcDbSymbolTableRecord
100
AcDbLinetypeTableRecord
  2
BYLAYER
 70
     0
  3

 72
    65
 73
     0
 40
0.0
  0
LTYPE
  5
14
100
AcDbSymbolTableRecord
100
AcDbLinetypeTableRecord
  2
CONTINUOUS
 70
     0
  3
Solid line
 72
    65
 73
     0
 40
0.0
  0
LTYPE
  5
20
100
AcDbSymbolTableRecord
100
AcDbLinetypeTableRecord
  2
HIDDEN
 70
     0
  3
_ _ _ _ _ _ _ _ _ _ _ _ _ _ 
 72
    65
 73
     2
 40
9.524999999999998
 49
6.349999999999999
 74
     0
 49
-3.174999999999999
 74
     0
  0
LTYPE
  5
21
100
AcDbSymbolTableRecord
100
AcDbLinetypeTableRecord
  2
DASHED
 70
     0
  3
__ __ __ __ __ __ __ __ __ 
 72
    65
 73
     2
 40
19.04999999999999
 49
12.7
 74
     0
 49
-6.349999999999999
 74
     0
  0
LTYPE
  5
22
100
AcDbSymbolTableRecord
100
AcDbLinetypeTableRecord
  2
CENTER
 70
     0
  3
____ _ ____ _ ____ _ ____ _ 
 72
    65
 73
     4
 40
50.8
 49
31.75
 74
     0
 49
-6.349999999999999
 74
     0
 49
6.349999999999999
 74
     0
 49
-6.349999999999999
 74
     0
  0
LTYPE
  5
23
100
AcDbSymbolTableRecord
100
AcDbLinetypeTableRecord
  2
PHANTOM
 70
     0
  3
_____ _ _ _____ _ _ _____ _ _ 
 72
    65
 73
     6
 40
63.50000000000001
 49
31.75
 74
     0
 49
-6.349999999999999
 74
     0
 49
6.349999999999999
 74
     0
 49
-6.349999999999999
 74
     0
 49
6.349999999999999
 74
     0
 49
-6.349999999999999
 74
     0
  0
LTYPE
  5
24
100
AcDbSymbolTableRecord
100
AcDbLinetypeTableRecord
  2
DOT
 70
     0
  3
...........................
 72
    65
 73
     2
 40
6.349999999999999
 49
0.0
 74
     0
 49
-6.349999999999999
 74
     0
  0
LTYPE
  5
25
100
AcDbSymbolTableRecord
100
AcDbLinetypeTableRecord
  2
DASHDOT
 70
     0
  3
__ . __ . __ . __ . __ . __ . 
 72
    65
 73
     4
 40
25.4
 49
12.7
 74
     0
 49
-6.349999999999999
 74
     0
 49
0.0
 74
     0
 49
-6.349999999999999
 74
     0
  0
LTYPE
  5
26
100
AcDbSymbolTableRecord
100
AcDbLinetypeTableRecord
  2
DIVIDE
 70
     0
  3
__ . . __ . . __ . . __ . . 
 72
    65
 73
     6
 40
31.75
 49
12.7
 74
     0
 49
-6.349999999999999
 74
     0
 49
0.0
 74
     0
 49
-6.349999999999999
 74
     0
 49
0.0
 74
     0
 49
-6.349999999999999
 74
     0
  0
LTYPE
  5
27
100
AcDbSymbolTableRecord
100
AcDbLinetypeTableRecord
  2
BORDER
 70
     0
  3
__ __ . __ __ . __ __ . __ __ .
 72
    65
 73
     6
 40
44.44999999999999
 49
12.7
 74
     0
 49
-6.349999999999999
 74
     0
 49
12.7
 74
     0
 49
-6.349999999999999
 74
     0
 49
0.0
 74
     0
 49
-6.349999999999999
 74
     0
  0
LTYPE
  5
28
100
AcDbSymbolTableRecord
100
AcDbLinetypeTableRecord
  2
BORDER2
 70
     0
  3
Border (.5x) __.__.__.__.__.__.
 72
    65
 73
     6
 40
0.875
 49
0.25
 74
     0
 49
-0.125
 74
     0
 49
0.25
 74
     0
 49
-0.125
 74
     0
 49
0.0
 74
     0
 49
-0.125
 74
     0
  0
LTYPE
  5
29
100
AcDbSymbolTableRecord
100
AcDbLinetypeTableRecord
  2
BORDERX2
 70
     0
  3
Border (2x) ____  ____  .  ____
 72
    65
 73
     6
 40
3.5
 49
1.0
 74
     0
 49
-0.5
 74
     0
 49
1.0
 74
     0
 49
-0.5
 74
     0
 49
0.0
 74
     0
 49
-0.5
 74
     0
  0
LTYPE
  5
2A
100
AcDbSymbolTableRecord
100
AcDbLinetypeTableRecord
  2
CENTER2
 70
     0
  3
Center (.5x) ___ _ ___ _ ___ _ 
 72
    65
 73
     4
 40
1.125
 49
0.75
 74
     0
 49
-0.125
 74
     0
 49
0.125
 74
     0
 49
-0.125
 74
     0
  0
LTYPE
  5
2B
100
AcDbSymbolTableRecord
100
AcDbLinetypeTableRecord
  2
CENTERX2
 70
     0
  3
Center (2x) ________  __  _____
 72
    65
 73
     4
 40
4.0
 49
2.5
 74
     0
 49
-0.5
 74
     0
 49
0.5
 74
     0
 49
-0.5
 74
     0
  0
LTYPE
  5
2C
100
AcDbSymbolTableRecord
100
AcDbLinetypeTableRecord
  2
DASHDOT2
 70
     0
  3
Dash dot (.5x) _._._._._._._._.
 72
    65
 73
     4
 40
0.5
 49
0.25
 74
     0
 49
-0.125
 74
     0
 49
0.0
 74
     0
 49
-0.125
 74
     0
  0
LTYPE
  5
2D
100
AcDbSymbolTableRecord
100
AcDbLinetypeTableRecord
  2
DASHDOTX2
 70
     0
  3
Dash dot (2x) ____  .  ____  . 
 72
    65
 73
     4
 40
2.0
 49
1.0
 74
     0
 49
-0.5
 74
     0
 49
0.0
 74
     0
 49
-0.5
 74
     0
  0
LTYPE
  5
2E
100
AcDbSymbolTableRecord
100
AcDbLinetypeTableRecord
  2
DASHED2
 70
     0
  3
Dashed (.5x) _ _ _ _ _ _ _ _ _ 
 72
    65
 73
     2
 40
0.375
 49
0.25
 74
     0
 49
-0.125
 74
     0
  0
LTYPE
  5
2F
100
AcDbSymbolTableRecord
100
AcDbLinetypeTableRecord
  2
DASHEDX2
 70
     0
  3
Dashed (2x) ____  ____  ____  _
 72
    65
 73
     2
 40
1.5
 49
1.0
 74
     0
 49
-0.5
 74
     0
  0
LTYPE
  5
30
100
AcDbSymbolTableRecord
100
AcDbLinetypeTableRecord
  2
DIVIDE2
 70
     0
  3
Divide (.5x) __..__..__..__..__
 72
    65
 73
     6
 40
0.625
 49
0.25
 74
     0
 49
-0.125
 74
     0
 49
0.0
 74
     0
 49
-0.125
 74
     0
 49
0.0
 74
     0
 49
-0.125
 74
     0
  0
LTYPE
  5
31
100
AcDbSymbolTableRecord
100
AcDbLinetypeTableRecord
  2
DIVIDEX2
 70
     0
  3
Divide (2x) ________  .  .  ___
 72
    65
 73
     6
 40
2.5
 49
1.0
 74
     0
 49
-0.5
 74
     0
 49
0.0
 74
     0
 49
-0.5
 74
     0
 49
0.0
 74
     0
 49
-0.5
 74
     0
  0
LTYPE
  5
32
100
AcDbSymbolTableRecord
100
AcDbLinetypeTableRecord
  2
DOT2
 70
     0
  3
Dot (.5x) .....................
 72
    65
 73
     2
 40
0.125
 49
0.0
 74
     0
 49
-0.125
 74
     0
  0
LTYPE
  5
33
100
AcDbSymbolTableRecord
100
AcDbLinetypeTableRecord
  2
DOTX2
 70
     0
  3
Dot (2x) .  .  .  .  .  .  .  .
 72
    65
 73
     2
 40
0.5
 49
0.0
 74
     0
 49
-0.5
 74
     0
  0
LTYPE
  5
34
100
AcDbSymbolTableRecord
100
AcDbLinetypeTableRecord
  2
HIDDEN2
 70
     0
  3
Hidden (.5x) _ _ _ _ _ _ _ _ _ 
 72
    65
 73
     2
 40
0.1875
 49
0.125
 74
     0
 49
-0.0625
 74
     0
  0
LTYPE
  5
35
100
AcDbSymbolTableRecord
100
AcDbLinetypeTableRecord
  2
HIDDENX2
 70
     0
  3
Hidden (2x) ____ ____ ____ ____
 72
    65
 73
     2
 40
0.75
 49
0.5
 74
     0
 49
-0.25
 74
     0
  0
LTYPE
  5
36
100
AcDbSymbolTableRecord
100
AcDbLinetypeTableRecord
  2
PHANTOM2
 70
     0
  3
Phantom (.5x) ___ _ _ ___ _ _ _
 72
    65
 73
     6
 40
1.25
 49
0.625
 74
     0
 49
-0.125
 74
     0
 49
0.125
 74
     0
 49
-0.125
 74
     0
 49
0.125
 74
     0
 49
-0.125
 74
     0
  0
LTYPE
  5
37
100
AcDbSymbolTableRecord
100
AcDbLinetypeTableRecord
  2
PHANTOMX2
 70
     0
  3
Phantom (2x) ____________    __
 72
    65
 73
     6
 40
5.0
 49
2.5
 74
     0
 49
-0.5
 74
     0
 49
0.5
 74
     0
 49
-0.5
 74
     0
 49
0.5
 74
     0
 49
-0.5
 74
     0
  0
LTYPE
  5
38
100
AcDbSymbolTableRecord
100
AcDbLinetypeTableRecord
  2
DOTS
 70
     0
  3
Dots - - - - - - - - - - - - - 
 72
    65
 73
     2
 40
0.1
 49
0.05
 74
     0
 49
-0.05
 74
     0
  0
LTYPE
  5
39
100
AcDbSymbolTableRecord
100
AcDbLinetypeTableRecord
  2
ACAD_ISO02W100
 70
     0
  3
__ __ __ __ __ __ __ __ __ __ _
 72
    65
 73
     2
 40
15.0
 49
12.0
 74
     0
 49
-3.0
 74
     0
  0
LTYPE
  5
3A
100
AcDbSymbolTableRecord
100
AcDbLinetypeTableRecord
  2
ACAD_ISO03W100
 70
     0
  3
__    __    __    __    __    _
 72
    65
 73
     2
 40
30.0
 49
12.0
 74
     0
 49
-18.0
 74
     0
  0
LTYPE
  5
3B
100
AcDbSymbolTableRecord
100
AcDbLinetypeTableRecord
  2
ACAD_ISO04W100
 70
     0
  3
____ . ____ . ____ . ____ . ___
 72
    65
 73
     4
 40
30.5
 49
24.0
 74
     0
 49
-3.0
 74
     0
 49
0.5
 74
     0
 49
-3.0
 74
     0
  0
LTYPE
  5
3C
100
AcDbSymbolTableRecord
100
AcDbLinetypeTableRecord
  2
ACAD_ISO05W100
 70
     0
  3
____ .. ____ .. ____ .. ____ ..
 72
    65
 73
     6
 40
34.0
 49
24.0
 74
     0
 49
-3.0
 74
     0
 49
0.5
 74
     0
 49
-3.0
 74
     0
 49
0.5
 74
     0
 49
-3.0
 74
     0
  0
LTYPE
  5
3D
100
AcDbSymbolTableRecord
100
AcDbLinetypeTableRecord
  2
ACAD_ISO06W100
 70
     0
  3
____ ... ____ ... ____ ... ____
 72
    65
 73
     6
 40
34.0
 49
24.0
 74
     0
 49
-3.0
 74
     0
 49
0.5
 74
     0
 49
-3.0
 74
     0
 49
0.5
 74
     0
 49
-3.0
 74
     0
  0
LTYPE
  5
3E
100
AcDbSymbolTableRecord
100
AcDbLinetypeTableRecord
  2
ACAD_ISO07W100
 70
     0
  3
. . . . . . . . . . . . . . . .
 72
    65
 73
     2
 40
3.5
 49
0.5
 74
     0
 49
-3.0
 74
     0
  0
LTYPE
  5
3F
100
AcDbSymbolTableRecord
100
AcDbLinetypeTableRecord
  2
ACAD_ISO08W100
 70
     0
  3
____ __ ____ __ ____ __ ____ __
 72
    65
 73
     4
 40
36.0
 49
24.0
 74
     0
 49
-3.0
 74
     0
 49
6.0
 74
     0
 49
-3.0
 74
     0
  0
LTYPE
  5
40
100
AcDbSymbolTableRecord
100
AcDbLinetypeTableRecord
  2
ACAD_ISO09W100
 70
     0
  3
____ __ __ ____ __ __ ____ __ _
 72
    65
 73
     6
 40
45.0
 49
24.0
 74
     0
 49
-3.0
 74
     0
 49
6.0
 74
     0
 49
-3.0
 74
     0
 49
6.0
 74
     0
 49
-3.0
 74
     0
  0
LTYPE
  5
41
100
AcDbSymbolTableRecord
100
AcDbLinetypeTableRecord
  2
ACAD_ISO10W100
 70
     0
  3
__ . __ . __ . __ . __ . __ . _
 72
    65
 73
     4
 40
18.5
 49
12.0
 74
     0
 49
-3.0
 74
     0
 49
0.5
 74
     0
 49
-3.0
 74
     0
  0
LTYPE
  5
42
100
AcDbSymbolTableRecord
100
AcDbLinetypeTableRecord
  2
ACAD_ISO11W100
 70
     0
  3
__ __ . __ __ . __ __ . __ __ .
 72
    65
 73
     6
 40
33.5
 49
12.0
 74
     0
 49
-3.0
 74
     0
 49
12.0
 74
     0
 49
-3.0
 74
     0
 49
0.5
 74
     0
 49
-3.0
 74
     0
  0
LTYPE
  5
43
100
AcDbSymbolTableRecord
100
AcDbLinetypeTableRecord
  2
ACAD_ISO12W100
 70
     0
  3
__ . . __ . . __ . . __ . . __ 
 72
    65
 73
     6
 40
22.0
 49
12.0
 74
     0
 49
-3.0
 74
     0
 49
0.5
 74
     0
 49
-3.0
 74
     0
 49
0.5
 74
     0
 49
-3.0
 74
     0
  0
LTYPE
  5
44
100
AcDbSymbolTableRecord
100
AcDbLinetypeTableRecord
  2
ACAD_ISO13W100
 70
     0
  3
__ __ . . __ __ . . __ __ . . _
 72
    65
 73
     6
 40
33.5
 49
12.0
 74
     0
 49
-3.0
 74
     0
 49
12.0
 74
     0
 49
-3.0
 74
     0
 49
0.5
 74
     0
 49
-3.0
 74
     0
  0
LTYPE
  5
45
100
AcDbSymbolTableRecord
100
AcDbLinetypeTableRecord
  2
ACAD_ISO14W100
 70
     0
  3
__ . . . __ . . . __ . . . __ .
 72
    65
 73
     6
 40
22.0
 49
12.0
 74
     0
 49
-3.0
 74
     0
 49
0.5
 74
     0
 49
-3.0
 74
     0
 49
0.5
 74
     0
 49
-3.0
 74
     0
  0
LTYPE
  5
46
100
AcDbSymbolTableRecord
100
AcDbLinetypeTableRecord
  2
ACAD_ISO15W100
 70
     0
  3
__ __ . . . __ __ . . . __ __ .
 72
    65
 73
     6
 40
33.5
 49
12.0
 74
     0
 49
-3.0
 74
     0
 49
12.0
 74
     0
 49
-3.0
 74
     0
 49
0.5
 74
     0
 49
-3.0
 74
     0
  0
ENDTAB
  0
TABLE
  2
LAYER
  5
2
100
AcDbSymbolTable
 70
     7
  0
LAYER
  5
E
100
AcDbSymbolTableRecord
100
AcDbLayerTableRecord
  2
0
 70
     0
 62
     7
  6
CONTINUOUS
  0
LAYER
  5
47
100
AcDbSymbolTableRecord
100
AcDbLayerTableRecord
  2
AXES
 70
     0
 62
     1
  6
CONTINUOUS
  0
LAYER
  5
48
100
AcDbSymbolTableRecord
100
AcDbLayerTableRecord
  2
CAP
 70
     0
 62
     7
  6
CONTINUOUS
  0
LAYER
  5
49
100
AcDbSymbolTableRecord
100
AcDbLayerTableRecord
  2
COMMENTS
 70
     0
 62
    94
  6
CONTINUOUS
  0
LAYER
  5
4A
100
AcDbSymbolTableRecord
100
AcDbLayerTableRecord
  2
FIXEDPARTS
 70
     0
 62
     7
  6
CONTINUOUS
  0
LAYER
  5
4B
100
AcDbSymbolTableRecord
100
AcDbLayerTableRecord
  2
HULL
 70
     4
 62
     7
  6
CONTINUOUS
  0
LAYER
  5
4C
100
AcDbSymbolTableRecord
100
AcDbLayerTableRecord
  2
TURRET
 70
     4
 62
     7
  6
CONTINUOUS
  0
ENDTAB
  0
TABLE
  2
STYLE
  5
3
100
AcDbSymbolTable
 70
     5
  0
STYLE
  5
F
100
AcDbSymbolTableRecord
100
AcDbTextStyleTableRecord
  2
STANDARD
 70
     0
 40
0.0
 41
1.0
 50
0.0
 71
     0
 42
269.081152725242
  3
txt
  4

  0
STYLE
  5
4D
100
AcDbSymbolTableRecord
100
AcDbTextStyleTableRecord
  2
ITALIC
 70
     0
 40
0.0
 41
1.0
 50
0.0
 71
     0
 42
269.081152725242
  3
ITALIC
  4

  0
STYLE
  5
4E
100
AcDbSymbolTableRecord
100
AcDbTextStyleTableRecord
  2
SIMPLEX
 70
     0
 40
0.0
 41
1.0
 50
0.0
 71
     0
 42
269.081152725242
  3
SIMPLEX
  4

  0
STYLE
  5
4F
100
AcDbSymbolTableRecord
100
AcDbTextStyleTableRecord
  2
COMPLEX
 70
     0
 40
0.0
 41
1.0
 50
0.0
 71
     0
 42
269.081152725242
  3
COMPLEX
  4

  0
STYLE
  5
D0
100
AcDbSymbolTableRecord
100
AcDbTextStyleTableRecord
  2
ARIAL
 70
     0
 40
0.0
 41
1.0
 50
0.0
 71
     0
 42
269.081152725242
  3
ARIAL.TTF
  4

1001
ACAD
1000
Arial
1071
        0
  0
ENDTAB
  0
TABLE
  2
VIEW
  5
6
100
AcDbSymbolTable
 70
     0
  0
ENDTAB
  0
TABLE
  2
UCS
  5
7
100
AcDbSymbolTable
 70
     0
  0
ENDTAB
  0
TABLE
  2
APPID
  5
9
100
AcDbSymbolTable
 70
     1
  0
APPID
  5
10
100
AcDbSymbolTableRecord
100
AcDbRegAppTableRecord
  2
ACAD
 70
     0
  0
ENDTAB
  0
TABLE
  2
DIMSTYLE
  5
A
100
AcDbSymbolTable
 70
     1
  0
DIMSTYLE
105
1D
100
AcDbSymbolTableRecord
100
AcDbDimStyleTableRecord
  2
STANDARD
 70
     0
  3

  4

  5

  6

  7

 40
1.0
 41
0.18
 42
0.0625
 43
0.38
 44
0.18
 45
0.0
 46
0.0
 47
0.0
 48
0.0
140
0.18
141
0.09
142
0.0
143
25.4
144
1.0
145
0.0
146
1.0
147
0.09
 71
     0
 72
     0
 73
     1
 74
     1
 75
     0
 76
     0
 77
     0
 78
     0
170
     0
171
     2
172
     0
173
     0
174
     0
175
     0
176
     0
177
     0
178
     0
270
     2
271
     4
272
     4
273
     2
274
     2
340
F
275
     0
280
     0
281
     0
282
     0
283
     1
284
     0
285
     0
286
     0
287
     3
288
     0
  0
ENDTAB
  0
TABLE
  2
BLOCK_RECORD
  5
1
100
AcDbSymbolTable
 70
     0
  0
BLOCK_RECORD
  5
18
100
AcDbSymbolTableRecord
100
AcDbBlockTableRecord
  2
*MODEL_SPACE
  0
BLOCK_RECORD
  5
15
100
AcDbSymbolTableRecord
100
AcDbBlockTableRecord
  2
*PAPER_SPACE
  0
ENDTAB
  0
ENDSEC
  0
SECTION
  2
BLOCKS
  0
BLOCK
  5
19
100
AcDbEntity
  8
0
100
AcDbBlockBegin
  2
*MODEL_SPACE
 70
     0
 10
0.0
 20
0.0
 30
0.0
  3
*MODEL_SPACE
  1

  0
ENDBLK
  5
1A
100
AcDbEntity
  8
0
100
AcDbBlockEnd
  0
BLOCK
  5
16
100
AcDbEntity
 67
     1
  8
0
100
AcDbBlockBegin
  2
*PAPER_SPACE
 70
     0
 10
0.0
 20
0.0
 30
0.0
  3
*PAPER_SPACE
  1

  0
ENDBLK
  5
17
100
AcDbEntity
 67
     1
  8
0
100
AcDbBlockEnd
  0
ENDSEC
  0
SECTION
  2
ENTITIES
  0
LINE
  5
50
100
AcDbEntity
  8
AXES
  6
CONTINUOUS
100
AcDbLine
 10
13050.69921264383
 20
4021.072989965613
 30
0.0
 11
13050.69921264383
 21
7635.589715100525
 31
0.0
  0
LINE
  5
51
100
AcDbEntity
  8
HULL
  6
CONTINUOUS
100
AcDbLine
 10
14560.69921264383
 20
7484.489627138294
 30
0.0
 11
11540.69921264383
 21
7484.489627138284
 31
0.0
  0
LINE
  5
52
100
AcDbEntity
  8
AXES
  6
CONTINUOUS
100
AcDbLine
 10
14732.41790857741
 20
5311.489627138295
 30
0.0
 11
11340.17014482236
 21
5311.489627138283
 31
0.0
  0
LINE
  5
53
100
AcDbEntity
  8
HULL
  6
CONTINUOUS
100
AcDbLine
 10
13618.69921264382
 20
4131.489627138291
 30
0.0
 11
12482.69921264383
 21
4131.489627138285
 31
0.0
  0
LINE
  5
54
100
AcDbEntity
  8
HULL
  6
CONTINUOUS
100
AcDbLine
 10
12457.69921264383
 20
4266.489627138289
 30
0.0
 11
11520.69921264383
 21
4266.489627138287
 31
0.0
  0
LINE
  5
55
100
AcDbEntity
  8
HULL
  6
CONTINUOUS
100
AcDbLine
 10
12482.69921264383
 20
4241.489627138289
 30
0.0
 11
12482.69921264383
 21
4131.489627138289
 31
0.0
  0
ARC
  5
56
100
AcDbEntity
  8
HULL
  6
CONTINUOUS
100
AcDbCircle
 10
12457.69921264383
 20
4241.489627138289
 30
0.0
 40
25.0
100
AcDbArc
 50
0.0000000000000509
 51
90.00000000000005
  0
LINE
  5
57
100
AcDbEntity
  8
HULL
  6
CONTINUOUS
100
AcDbLine
 10
14580.69921264384
 20
4266.489627138289
 30
0.0
 11
13643.69921264382
 21
4266.489627138287
 31
0.0
  0
LINE
  5
58
100
AcDbEntity
  8
HULL
  6
CONTINUOUS
100
AcDbLine
 10
13618.69921264382
 20
4241.489627138286
 30
0.0
 11
13618.69921264382
 21
4131.489627138289
 31
0.0
  0
ARC
  5
59
100
AcDbEntity
  8
HULL
  6
CONTINUOUS
100
AcDbCircle
 10
13643.69921264382
 20
4241.489627138286
 30
0.0
 40
25.0
100
AcDbArc
 50
90.00000000000005
 51
180.0
  0
LINE
  5
5A
100
AcDbEntity
  8
HULL
  6
CONTINUOUS
100
AcDbLine
 10
14620.69921264383
 20
4021.072989965613
 30
0.0
 11
14620.69921264383
 21
7561.778949019636
 31
0.0
  0
LINE
  5
5B
100
AcDbEntity
  8
HULL
  6
CONTINUOUS
100
AcDbLine
 10
11480.69921264383
 20
4021.072989965613
 30
0.0
 11
11480.69921264383
 21
7561.778949019636
 31
0.0
  0
CIRCLE
  5
5C
100
AcDbEntity
  8
HULL
  6
CONTINUOUS
100
AcDbCircle
 10
13950.69921264384
 20
7024.48962713829
 30
0.0
 40
239.9999999999999
  0
CIRCLE
  5
5D
100
AcDbEntity
  8
HULL
  6
CONTINUOUS
100
AcDbCircle
 10
12150.69921264382
 20
7024.48962713829
 30
0.0
 40
239.9999999999999
  0
LINE
  5
5E
100
AcDbEntity
  8
HULL
  6
CONTINUOUS
100
AcDbLine
 10
11520.69921264383
 20
4021.072989965613
 30
0.0
 11
11520.69921264383
 21
4266.489627138282
 31
0.0
  0
LINE
  5
5F
100
AcDbEntity
  8
HULL
  6
CONTINUOUS
100
AcDbLine
 10
14580.69921264383
 20
4021.072989965613
 30
0.0
 11
14580.69921264383
 21
4266.489627138282
 31
0.0
  0
LINE
  5
60
100
AcDbEntity
  8
HULL
  6
CONTINUOUS
100
AcDbLine
 10
11480.69921264383
 20
7561.778949019639
 30
0.0
 11
14620.69921264383
 21
7561.778949019636
 31
0.0
  0
LINE
  5
61
100
AcDbEntity
  8
AXES
100
AcDbLine
 10
15458.99575857578
 20
6914.90398058967
 30
0.0
 11
15620.46197814392
 21
6914.903980589667
 31
0.0
  0
LINE
  5
62
100
AcDbEntity
  8
AXES
100
AcDbLine
 10
15755.45461721
 20
5846.367023484013
 30
0.0
 11
15814.19312839692
 21
5846.367023484013
 31
0.0
  0
CIRCLE
  5
63
100
AcDbEntity
  8
FIXEDPARTS
100
AcDbCircle
 10
15507.70492003343
 20
6914.903980589641
 30
0.0
 40
15.0
  0
LINE
  5
64
100
AcDbEntity
  8
FIXEDPARTS
100
AcDbLine
 10
15487.70492003334
 20
6894.903980589683
 30
0.0
 11
15567.70492003377
 21
6894.903980589636
 31
0.0
  0
LINE
  5
65
100
AcDbEntity
  8
FIXEDPARTS
100
AcDbLine
 10
15487.70492003335
 20
6934.903980589715
 30
0.0
 11
15567.70492003374
 21
6934.903980589682
 31
0.0
  0
LINE
  5
66
100
AcDbEntity
  8
FIXEDPARTS
100
AcDbLine
 10
15487.70492003335
 20
6934.903980589708
 30
0.0
 11
15487.70492003338
 21
6894.90398058968
 31
0.0
  0
LINE
  5
67
100
AcDbEntity
  8
FIXEDPARTS
100
AcDbLine
 10
15567.70492003335
 20
6934.903980589708
 30
0.0
 11
15567.70492003338
 21
6894.90398058968
 31
0.0
  0
CIRCLE
  5
68
100
AcDbEntity
  8
FIXEDPARTS
100
AcDbCircle
 10
15597.70492003343
 20
6914.903980589641
 30
0.0
 40
15.0
  0
LWPOLYLINE
  5
69
100
AcDbEntity
  8
FIXEDPARTS
100
AcDbPolyline
 90
        4
 70
     1
 43
0.0
 10
15547.70492003343
 20
6924.903980589641
 10
15547.70492003343
 20
6904.90398058964
 10
15557.70492003343
 20
6904.90398058964
 10
15557.70492003343
 20
6924.903980589641
  0
LINE
  5
6A
100
AcDbEntity
  8
AXES
  6
CONTINUOUS
100
AcDbLine
 10
14465.69921264383
 20
4779.491956342994
 30
0.0
 11
14465.69921264383
 21
4968.76372214317
 31
0.0
  0
CIRCLE
  5
6B
100
AcDbEntity
  8
FIXEDPARTS
100
AcDbCircle
 10
14465.69921264383
 20
4836.489627138591
 30
0.0
 40
15.0
  0
LINE
  5
6C
100
AcDbEntity
  8
FIXEDPARTS
100
AcDbLine
 10
14485.69921264378
 20
4816.489627138496
 30
0.0
 11
14485.69921264383
 21
4896.489627138924
 31
0.0
  0
LINE
  5
6D
100
AcDbEntity
  8
FIXEDPARTS
100
AcDbLine
 10
14445.69921264375
 20
4816.489627138505
 30
0.0
 11
14445.69921264378
 21
4896.489627138891
 31
0.0
  0
LINE
  5
6E
100
AcDbEntity
  8
FIXEDPARTS
100
AcDbLine
 10
14445.69921264376
 20
4816.489627138506
 30
0.0
 11
14485.69921264379
 21
4816.489627138538
 31
0.0
  0
LINE
  5
6F
100
AcDbEntity
  8
FIXEDPARTS
100
AcDbLine
 10
14445.69921264376
 20
4896.489627138506
 30
0.0
 11
14485.69921264379
 21
4896.489627138538
 31
0.0
  0
CIRCLE
  5
70
100
AcDbEntity
  8
FIXEDPARTS
100
AcDbCircle
 10
14465.69921264383
 20
4926.48962713859
 30
0.0
 40
15.0
  0
LWPOLYLINE
  5
71
100
AcDbEntity
  8
FIXEDPARTS
100
AcDbPolyline
 90
        4
 70
     1
 43
0.0
 10
14455.69921264382
 20
4876.489627138591
 10
14475.69921264383
 20
4876.489627138591
 10
14475.69921264383
 20
4886.48962713859
 10
14455.69921264382
 20
4886.48962713859
  0
LWPOLYLINE
  5
72
100
AcDbEntity
  8
FIXEDPARTS
100
AcDbPolyline
 90
        4
 70
     1
 43
0.0
 10
15487.7049200361
 20
6794.598291274308
 10
15567.7049200361
 20
6794.598291274308
 10
15567.7049200361
 20
6798.598291274308
 10
15487.7049200361
 20
6798.598291274308
  0
LWPOLYLINE
  5
73
100
AcDbEntity
  8
FIXEDPARTS
100
AcDbPolyline
 90
        4
 70
     1
 43
0.0
 10
15547.7049200361
 20
6798.598291274308
 10
15557.7049200361
 20
6798.598291274308
 10
15557.7049200361
 20
6813.598291274307
 10
15547.7049200361
 20
6813.598291274307
  0
LWPOLYLINE
  5
74
100
AcDbEntity
  8
FIXEDPARTS
100
AcDbPolyline
 90
        4
 70
     1
 43
0.0
 10
15492.7049200361
 20
6798.598291274308
 10
15522.7049200361
 20
6798.598291274308
 10
15522.7049200361
 20
6828.598291274308
 10
15492.7049200361
 20
6828.598291274308
  0
LINE
  5
75
100
AcDbEntity
  8
FIXEDPARTS
100
AcDbLine
 10
15492.7049200361
 20
6798.598291274308
 30
0.0
 11
15522.7049200361
 21
6799.348291274306
 31
0.0
  0
LINE
  5
76
100
AcDbEntity
  8
FIXEDPARTS
100
AcDbLine
 10
15492.7049200361
 20
6800.098291274307
 30
0.0
 11
15522.7049200361
 21
6800.848291274306
 31
0.0
  0
LINE
  5
77
100
AcDbEntity
  8
FIXEDPARTS
100
AcDbLine
 10
15492.7049200361
 20
6801.598291274307
 30
0.0
 11
15522.7049200361
 21
6802.348291274306
 31
0.0
  0
LINE
  5
78
100
AcDbEntity
  8
FIXEDPARTS
100
AcDbLine
 10
15492.7049200361
 20
6803.098291274307
 30
0.0
 11
15522.7049200361
 21
6803.848291274306
 31
0.0
  0
LINE
  5
79
100
AcDbEntity
  8
FIXEDPARTS
100
AcDbLine
 10
15492.7049200361
 20
6804.598291274307
 30
0.0
 11
15522.7049200361
 21
6805.348291274306
 31
0.0
  0
LINE
  5
7A
100
AcDbEntity
  8
FIXEDPARTS
100
AcDbLine
 10
15492.7049200361
 20
6806.098291274307
 30
0.0
 11
15522.7049200361
 21
6806.848291274305
 31
0.0
  0
LINE
  5
7B
100
AcDbEntity
  8
FIXEDPARTS
100
AcDbLine
 10
15492.7049200361
 20
6807.598291274307
 30
0.0
 11
15522.7049200361
 21
6808.348291274305
 31
0.0
  0
LINE
  5
7C
100
AcDbEntity
  8
FIXEDPARTS
100
AcDbLine
 10
15492.7049200361
 20
6809.098291274306
 30
0.0
 11
15522.7049200361
 21
6809.848291274303
 31
0.0
  0
LINE
  5
7D
100
AcDbEntity
  8
FIXEDPARTS
100
AcDbLine
 10
15492.7049200361
 20
6810.598291274306
 30
0.0
 11
15522.7049200361
 21
6811.348291274303
 31
0.0
  0
LINE
  5
7E
100
AcDbEntity
  8
FIXEDPARTS
100
AcDbLine
 10
15492.7049200361
 20
6812.098291274304
 30
0.0
 11
15522.7049200361
 21
6812.848291274304
 31
0.0
  0
LINE
  5
7F
100
AcDbEntity
  8
FIXEDPARTS
100
AcDbLine
 10
15492.7049200361
 20
6813.598291274304
 30
0.0
 11
15522.7049200361
 21
6814.348291274303
 31
0.0
  0
LINE
  5
80
100
AcDbEntity
  8
FIXEDPARTS
100
AcDbLine
 10
15492.7049200361
 20
6815.098291274304
 30
0.0
 11
15522.7049200361
 21
6815.848291274303
 31
0.0
  0
LINE
  5
81
100
AcDbEntity
  8
FIXEDPARTS
100
AcDbLine
 10
15492.7049200361
 20
6816.598291274303
 30
0.0
 11
15522.7049200361
 21
6817.348291274303
 31
0.0
  0
LINE
  5
82
100
AcDbEntity
  8
FIXEDPARTS
100
AcDbLine
 10
15492.7049200361
 20
6818.098291274303
 30
0.0
 11
15522.7049200361
 21
6818.848291274303
 31
0.0
  0
LINE
  5
83
100
AcDbEntity
  8
FIXEDPARTS
100
AcDbLine
 10
15492.7049200361
 20
6819.598291274303
 30
0.0
 11
15522.7049200361
 21
6820.348291274303
 31
0.0
  0
LINE
  5
84
100
AcDbEntity
  8
FIXEDPARTS
100
AcDbLine
 10
15492.7049200361
 20
6821.098291274303
 30
0.0
 11
15522.7049200361
 21
6821.848291274301
 31
0.0
  0
LINE
  5
85
100
AcDbEntity
  8
FIXEDPARTS
100
AcDbLine
 10
15492.7049200361
 20
6822.598291274303
 30
0.0
 11
15522.7049200361
 21
6823.348291274301
 31
0.0
  0
LINE
  5
86
100
AcDbEntity
  8
FIXEDPARTS
100
AcDbLine
 10
15492.7049200361
 20
6824.098291274302
 30
0.0
 11
15522.7049200361
 21
6824.848291274301
 31
0.0
  0
LINE
  5
87
100
AcDbEntity
  8
FIXEDPARTS
100
AcDbLine
 10
15492.7049200361
 20
6825.598291274302
 30
0.0
 11
15522.7049200361
 21
6826.3482912743
 31
0.0
  0
LINE
  5
88
100
AcDbEntity
  8
FIXEDPARTS
100
AcDbLine
 10
15492.7049200361
 20
6827.098291274302
 30
0.0
 11
15522.7049200361
 21
6827.8482912743
 31
0.0
  0
LINE
  5
89
100
AcDbEntity
  8
HULL
100
AcDbLine
 10
15454.19754979822
 20
6794.598291274268
 30
0.0
 11
15663.68080530305
 21
6794.598291274268
 31
0.0
  0
LWPOLYLINE
  5
8A
100
AcDbEntity
  8
FIXEDPARTS
100
AcDbPolyline
 90
        4
 70
     1
 43
0.0
 10
15582.7049200361
 20
6794.598291274308
 10
15612.7049200361
 20
6794.598291274308
 10
15612.7049200361
 20
6839.598291274308
 10
15582.7049200361
 20
6839.598291274308
  0
LINE
  5
8B
100
AcDbEntity
  8
FIXEDPARTS
100
AcDbLine
 10
15582.7049200361
 20
6820.098291274307
 30
0.0
 11
15612.7049200361
 21
6820.848291274305
 31
0.0
  0
LINE
  5
8C
100
AcDbEntity
  8
FIXEDPARTS
100
AcDbLine
 10
15582.7049200361
 20
6821.598291274305
 30
0.0
 11
15612.7049200361
 21
6822.348291274304
 31
0.0
  0
LINE
  5
8D
100
AcDbEntity
  8
FIXEDPARTS
100
AcDbLine
 10
15582.7049200361
 20
6823.098291274305
 30
0.0
 11
15612.7049200361
 21
6823.848291274304
 31
0.0
  0
LINE
  5
8E
100
AcDbEntity
  8
FIXEDPARTS
100
AcDbLine
 10
15582.7049200361
 20
6824.598291274305
 30
0.0
 11
15612.7049200361
 21
6825.348291274304
 31
0.0
  0
LINE
  5
8F
100
AcDbEntity
  8
FIXEDPARTS
100
AcDbLine
 10
15582.7049200361
 20
6826.098291274305
 30
0.0
 11
15612.7049200361
 21
6826.848291274302
 31
0.0
  0
LINE
  5
90
100
AcDbEntity
  8
FIXEDPARTS
100
AcDbLine
 10
15582.7049200361
 20
6827.598291274305
 30
0.0
 11
15612.7049200361
 21
6828.348291274302
 31
0.0
  0
LINE
  5
91
100
AcDbEntity
  8
FIXEDPARTS
100
AcDbLine
 10
15582.7049200361
 20
6829.098291274305
 30
0.0
 11
15612.7049200361
 21
6829.848291274302
 31
0.0
  0
LINE
  5
92
100
AcDbEntity
  8
FIXEDPARTS
100
AcDbLine
 10
15582.7049200361
 20
6830.598291274303
 30
0.0
 11
15612.7049200361
 21
6831.348291274302
 31
0.0
  0
LINE
  5
93
100
AcDbEntity
  8
FIXEDPARTS
100
AcDbLine
 10
15582.7049200361
 20
6832.098291274303
 30
0.0
 11
15612.7049200361
 21
6832.848291274302
 31
0.0
  0
LINE
  5
94
100
AcDbEntity
  8
FIXEDPARTS
100
AcDbLine
 10
15582.7049200361
 20
6833.598291274303
 30
0.0
 11
15612.7049200361
 21
6834.348291274301
 31
0.0
  0
LINE
  5
95
100
AcDbEntity
  8
FIXEDPARTS
100
AcDbLine
 10
15582.7049200361
 20
6835.098291274303
 30
0.0
 11
15612.7049200361
 21
6835.848291274301
 31
0.0
  0
LINE
  5
96
100
AcDbEntity
  8
FIXEDPARTS
100
AcDbLine
 10
15582.7049200361
 20
6836.598291274303
 30
0.0
 11
15612.7049200361
 21
6837.348291274301
 31
0.0
  0
LINE
  5
97
100
AcDbEntity
  8
FIXEDPARTS
100
AcDbLine
 10
15582.7049200361
 20
6838.098291274302
 30
0.0
 11
15612.7049200361
 21
6838.8482912743
 31
0.0
  0
LINE
  5
98
100
AcDbEntity
  8
FIXEDPARTS
100
AcDbLine
 10
15612.7049200361
 20
6819.598291274307
 30
0.0
 11
15582.7049200361
 21
6819.598291274307
 31
0.0
  0
CIRCLE
  5
99
100
AcDbEntity
  8
FIXEDPARTS
100
AcDbCircle
 10
15597.70492003343
 20
6914.903980589641
 30
0.0
 40
13.49999999999999
  0
CIRCLE
  5
9A
100
AcDbEntity
  8
FIXEDPARTS
100
AcDbCircle
 10
15507.70492003343
 20
6914.903980589641
 30
0.0
 40
13.49999999999999
  0
LINE
  5
9B
100
AcDbEntity
  8
AXES
100
AcDbLine
 10
15784.91083533378
 20
5882.73531881627
 30
0.0
 11
15784.91083533378
 21
5777.000150039588
 31
0.0
  0
LINE
  5
9C
100
AcDbEntity
  8
CAP
100
AcDbLine
 10
15802.91083533465
 20
5797.110287828456
 30
0.0
 11
15802.91083533376
 21
5793.110287839795
 31
0.0
  0
LINE
  5
9D
100
AcDbEntity
  8
CAP
100
AcDbLine
 10
15801.91083534336
 20
5792.110287833929
 30
0.0
 11
15767.91083533105
 21
5792.110287833998
 31
0.0
  0
LINE
  5
9E
100
AcDbEntity
  8
CAP
100
AcDbLine
 10
15801.91083533391
 20
5798.110287834194
 30
0.0
 11
15767.91083533369
 21
5798.11028783418
 31
0.0
  0
ARC
  5
9F
100
AcDbEntity
  8
CAP
100
AcDbCircle
 10
15793.91083533368
 20
5776.360287835364
 30
0.0
 40
21.24999999869601
100
AcDbArc
 50
64.94238458015383
 51
115.0576154198461
  0
ARC
  5
A0
100
AcDbEntity
  8
CAP
100
AcDbCircle
 10
15793.91083533368
 20
5813.860287832517
 30
0.0
 40
21.24999999869601
100
AcDbArc
 50
244.9423845801538
 51
295.0576154198461
  0
ARC
  5
A1
100
AcDbEntity
  8
CAP
100
AcDbCircle
 10
15775.91083533387
 20
5776.360287835364
 30
0.0
 40
21.24999999869601
100
AcDbArc
 50
64.94238458015383
 51
115.0576154198461
  0
ARC
  5
A2
100
AcDbEntity
  8
CAP
100
AcDbCircle
 10
15775.91083533387
 20
5813.860287832517
 30
0.0
 40
21.24999999869601
100
AcDbArc
 50
244.9423845801538
 51
295.0576154198461
  0
LINE
  5
A3
100
AcDbEntity
  8
CAP
100
AcDbLine
 10
15801.91083533378
 20
5807.610287834369
 30
0.0
 11
15801.91083533378
 21
5798.524501408558
 31
0.0
  0
LINE
  5
A4
100
AcDbEntity
  8
CAP
100
AcDbLine
 10
15802.20372854397
 20
5797.817394622356
 30
0.0
 11
15802.91083533465
 21
5797.110287828033
 31
0.0
  0
ARC
  5
A5
100
AcDbEntity
  8
CAP
100
AcDbCircle
 10
15802.9108353338
 20
5798.524501408558
 30
0.0
 40
0.9999999999999998
100
AcDbArc
 50
180.0
 51
224.9999998527086
  0
LINE
  5
A6
100
AcDbEntity
  8
CAP
100
AcDbLine
 10
15801.91083534345
 20
5792.11028783402
 30
0.0
 11
15802.91083533465
 21
5793.110287839848
 31
0.0
  0
LINE
  5
A7
100
AcDbEntity
  8
CAP
100
AcDbLine
 10
15766.9108353329
 20
5797.110287828456
 30
0.0
 11
15766.9108353338
 21
5793.110287839795
 31
0.0
  0
LINE
  5
A8
100
AcDbEntity
  8
CAP
100
AcDbLine
 10
15767.61794212359
 20
5797.817394622356
 30
0.0
 11
15766.9108353329
 21
5797.110287828033
 31
0.0
  0
ARC
  5
A9
100
AcDbEntity
  8
CAP
100
AcDbCircle
 10
15766.91083533375
 20
5798.524501408558
 30
0.0
 40
0.9999999999999998
100
AcDbArc
 50
315.0000001472913
 51
0.0
  0
LINE
  5
AA
100
AcDbEntity
  8
CAP
100
AcDbLine
 10
15767.9108353241
 20
5792.11028783402
 30
0.0
 11
15766.9108353329
 21
5793.110287839848
 31
0.0
  0
LINE
  5
AB
100
AcDbEntity
  8
CAP
100
AcDbLine
 10
15767.91083533378
 20
5807.610287833794
 30
0.0
 11
15767.91083533378
 21
5798.524501408558
 31
0.0
  0
LINE
  5
AC
100
AcDbEntity
  8
CAP
100
AcDbLine
 10
15799.41083533381
 20
5810.110287834192
 30
0.0
 11
15770.41083533379
 21
5810.110287834181
 31
0.0
  0
ARC
  5
AD
100
AcDbEntity
  8
CAP
100
AcDbCircle
 10
15770.41083533379
 20
5807.610287833794
 30
0.0
 40
2.499999999999999
100
AcDbArc
 50
90.00000000000005
 51
180.0
  0
ARC
  5
AE
100
AcDbEntity
  8
CAP
100
AcDbCircle
 10
15799.41083533381
 20
5807.610287834369
 30
0.0
 40
2.499999999999999
100
AcDbArc
 50
0.0000000000165389
 51
90.00000000000005
  0
CIRCLE
  5
AF
100
AcDbEntity
  8
CAP
100
AcDbCircle
 10
15784.91083533378
 20
5846.367023484013
 30
0.0
 40
7.499999999999999
  0
LINE
  5
B0
100
AcDbEntity
  8
CAP
100
AcDbLine
 10
15792.41083533174
 20
5816.110287835375
 30
0.0
 11
15792.4108353342
 21
5814.610287834966
 31
0.0
  0
LINE
  5
B1
100
AcDbEntity
  8
CAP
100
AcDbLine
 10
15792.41083533382
 20
5816.110287834638
 30
0.0
 11
15777.41083533482
 21
5816.110287833732
 31
0.0
  0
LINE
  5
B2
100
AcDbEntity
  8
CAP
100
AcDbLine
 10
15777.41083533483
 20
5816.11028783447
 30
0.0
 11
15777.41083533106
 21
5814.61028783406
 31
0.0
  0
CIRCLE
  5
B3
100
AcDbEntity
  8
CAP
100
AcDbCircle
 10
15729.877303868
 20
5868.709187776829
 30
0.0
 40
10.49999999999999
  0
CIRCLE
  5
B4
100
AcDbEntity
  8
CAP
100
AcDbCircle
 10
15729.877303868
 20
5868.709187776829
 30
0.0
 40
7.499999999999999
  0
LINE
  5
B5
100
AcDbEntity
  8
CAP
100
AcDbLine
 10
15723.48703516566
 20
5800.691897906417
 30
0.0
 11
15723.48703516566
 21
5808.691897906417
 31
0.0
  0
LINE
  5
B6
100
AcDbEntity
  8
CAP
100
AcDbLine
 10
15730.48703516566
 20
5800.691897906417
 30
0.0
 11
15730.48703516566
 21
5808.691897906417
 31
0.0
  0
LINE
  5
B7
100
AcDbEntity
  8
CAP
100
AcDbLine
 10
15725.28703516566
 20
5800.691897906416
 30
0.0
 11
15725.28703516566
 21
5808.691897906417
 31
0.0
  0
ARC
  5
B8
100
AcDbEntity
  8
CAP
100
AcDbCircle
 10
15726.98703516566
 20
5808.691897906417
 30
0.0
 40
3.5
100
AcDbArc
 50
0.0
 51
180.0
  0
ARC
  5
B9
100
AcDbEntity
  8
CAP
100
AcDbCircle
 10
15726.98703516566
 20
5808.691897906417
 30
0.0
 40
1.7
100
AcDbArc
 50
0.0
 51
180.0
  0
LINE
  5
BA
100
AcDbEntity
  8
CAP
100
AcDbLine
 10
15728.68703516566
 20
5800.691897906416
 30
0.0
 11
15728.68703516566
 21
5808.691897906417
 31
0.0
  0
ARC
  5
BB
100
AcDbEntity
  8
CAP
100
AcDbCircle
 10
15726.98703516566
 20
5800.691897906417
 30
0.0
 40
3.5
100
AcDbArc
 50
180.0
 51
0.0
  0
ARC
  5
BC
100
AcDbEntity
  8
CAP
100
AcDbCircle
 10
15726.98703516566
 20
5800.691897906416
 30
0.0
 40
1.7
100
AcDbArc
 50
180.0
 51
0.0
  0
CIRCLE
  5
BD
100
AcDbEntity
  8
CAP
100
AcDbCircle
 10
15800.91083533378
 20
5846.367023484013
 30
0.0
 40
3.0
  0
LINE
  5
BE
100
AcDbEntity
  8
CAP
100
AcDbLine
 10
15790.40961927738
 20
5840.556397429828
 30
0.0
 11
15792.99038078969
 21
5842.999679799025
 31
0.0
  0
LINE
  5
BF
100
AcDbEntity
  8
CAP
100
AcDbLine
 10
15796.78665780711
 20
5850.724908260892
 30
0.0
 11
15795.74038075441
 21
5849.73436717677
 31
0.0
  0
LINE
  5
C0
100
AcDbEntity
  8
CAP
100
AcDbLine
 10
15790.40961927738
 20
5852.177649538197
 30
0.0
 11
15792.99038079004
 21
5849.734367168668
 31
0.0
  0
LINE
  5
C1
100
AcDbEntity
  8
CAP
100
AcDbLine
 10
15796.78665780711
 20
5842.009138707133
 30
0.0
 11
15795.74038075464
 21
5842.999679791049
 31
0.0
  0
ARC
  5
C2
100
AcDbEntity
  8
CAP
100
AcDbCircle
 10
15794.36538076796
 20
5851.186735944046
 30
0.0
 40
1.999999999999999
100
AcDbArc
 50
226.5674643062635
 51
313.4325360308417
  0
ARC
  5
C3
100
AcDbEntity
  8
CAP
100
AcDbCircle
 10
15794.36538076784
 20
5841.547311023409
 30
0.0
 40
1.999999999999999
100
AcDbArc
 50
46.56746396921838
 51
133.4325356937741
  0
ARC
  5
C4
100
AcDbEntity
  8
CAP
100
AcDbCircle
 10
15800.91083533378
 20
5846.367023484013
 30
0.0
 40
6.0
100
AcDbArc
 50
226.5674639691892
 51
133.4325360307717
  0
ARC
  5
C5
100
AcDbEntity
  8
CAP
100
AcDbCircle
 10
15784.91083533378
 20
5846.367023484013
 30
0.0
 40
7.999999999999999
100
AcDbArc
 50
46.56746430616685
 51
313.4325356937888
  0
LINE
  5
C6
100
AcDbEntity
  8
CAP
100
AcDbLine
 10
15805.41083533569
 20
5814.610287835421
 30
0.0
 11
15777.41083530516
 21
5814.610287834062
 31
0.0
  0
LINE
  5
C7
100
AcDbEntity
  8
CAP
100
AcDbLine
 10
15805.41083533587
 20
5811.610287835421
 30
0.0
 11
15777.41083531889
 21
5811.610287833956
 31
0.0
  0
ARC
  5
C8
100
AcDbEntity
  8
CAP
100
AcDbCircle
 10
15778.41083533578
 20
5813.110287835034
 30
0.0
 40
1.5
100
AcDbArc
 50
90.00000000000005
 51
270.0
  0
ARC
  5
C9
100
AcDbEntity
  8
CAP
100
AcDbCircle
 10
15805.41083533578
 20
5813.110287835034
 30
0.0
 40
1.5
100
AcDbArc
 50
270.0
 51
90.00000000000007
  0
LINE
  5
CA
100
AcDbEntity
  8
CAP
100
AcDbLine
 10
15792.41083532896
 20
5811.610287834861
 30
0.0
 11
15792.41083532974
 21
5810.110287834072
 31
0.0
  0
LINE
  5
CB
100
AcDbEntity
  8
CAP
100
AcDbLine
 10
15777.41083532815
 20
5811.610287833956
 30
0.0
 11
15777.41083533502
 21
5810.110287834066
 31
0.0
  0
LWPOLYLINE
  5
CC
100
AcDbEntity
  8
CAP
100
AcDbPolyline
 90
        8
 70
     0
 43
0.0
 10
15802.91083533378
 20
5852.023877733505
 10
15802.91083533378
 20
5856.759328329426
 10
15784.91083533378
 20
5867.151633174838
 10
15766.91083533378
 20
5856.759328329426
 10
15766.91083533378
 20
5835.9747186386
 10
15784.91083533378
 20
5825.582413793188
 10
15802.91083533378
 20
5835.9747186386
 10
15802.91083533378
 20
5840.710169234521
  0
LWPOLYLINE
  5
CD
100
AcDbEntity
  8
CAP
100
AcDbPolyline
 90
        2
 70
     0
 43
0.0
 10
15802.91083533378
 20
5844.130955506512
 10
15802.91083533378
 20
5848.603091461512
  0
ARC
  5
CE
100
AcDbEntity
  8
CAP
100
AcDbCircle
 10
15784.91083533378
 20
5846.367023484013
 30
0.0
 40
17.0
100
AcDbArc
 50
20.6646780584111
 51
339.3353219415889
  0
ARC
  5
CF
100
AcDbEntity
  8
CAP
100
AcDbCircle
 10
15784.91083533378
 20
5846.367023484013
 30
0.0
 40
17.0
100
AcDbArc
 50
350.1617730147539
 51
9.838226985246061
  0
TEXT
  5
D1
100
AcDbEntity
  8
COMMENTS
100
AcDbText
 10
15746.20549762282
 20
5866.778688113089
 30
0.0
 40
2.69081152725242
  1
End link
 41
0.6000000000000001
  7
ARIAL
 11
15746.20549762282
 21
5866.778688113089
 31
0.0
100
AcDbText
 73
     1
  0
TEXT
  5
D2
100
AcDbEntity
  8
COMMENTS
100
AcDbText
 10
15734.87422582713
 20
5803.149238798859
 30
0.0
 40
2.69081152725242
  1
Chain link x 8
 41
0.6000000000000001
  7
ARIAL
 11
15734.87422582713
 21
5803.149238798859
 31
0.0
100
AcDbText
 73
     1
  0
TEXT
  5
D3
100
AcDbEntity
  8
COMMENTS
100
AcDbText
 10
15763.05713260101
 20
5899.900867208167
 30
0.0
 40
8.072434581757264
  1
CAP
 41
0.6000000000000001
  7
ARIAL
 11
15763.05713260101
 21
5899.900867208167
 31
0.0
100
AcDbText
 73
     1
  0
LINE
  5
D4
100
AcDbEntity
  8
AXES
100
AcDbLine
 10
15597.70492003343
 20
6949.956249089421
 30
0.0
 11
15597.70492003343
 21
6775.907914307705
 31
0.0
  0
LINE
  5
D5
100
AcDbEntity
  8
AXES
100
AcDbLine
 10
15507.70492003343
 20
6949.956249089421
 30
0.0
 11
15507.70492003343
 21
6775.907914307705
 31
0.0
  0
TEXT
  5
D6
100
AcDbEntity
  8
COMMENTS
100
AcDbText
 10
15507.42070963326
 20
6981.086911861218
 30
0.0
 40
8.072434581757264
  1
Chimney top and 
 41
0.6000000000000001
  7
ARIAL
 11
15507.42070963326
 21
6981.086911861218
 31
0.0
100
AcDbText
 73
     1
  0
TEXT
  5
D7
100
AcDbEntity
  8
COMMENTS
100
AcDbText
 10
15507.42070963326
 20
6968.978259988583
 30
-12.10865187263589
 40
8.072434581757264
  1
holder for cap
 41
0.6000000000000001
  7
ARIAL
 11
15507.42070963326
 21
6968.978259988583
 31
-12.10865187263589
100
AcDbText
 73
     1
  0
TEXT
  5
D8
100
AcDbEntity
  8
COMMENTS
100
AcDbText
 10
14732.76267150274
 20
4893.054202408332
 30
0.0
 40
13.4540576362621
  1
Location is 
 41
0.6000000000000001
  7
ARIAL
 11
14732.76267150274
 21
4893.054202408332
 31
0.0
100
AcDbText
 73
     1
  0
TEXT
  5
D9
100
AcDbEntity
  8
COMMENTS
100
AcDbText
 10
14732.76267150274
 20
4872.87311595394
 30
-20.18108645439315
 40
13.4540576362621
  1
approximate.
 41
0.6000000000000001
  7
ARIAL
 11
14732.76267150274
 21
4872.87311595394
 31
-20.18108645439315
100
AcDbText
 73
     1
  0
LINE
  5
DA
100
AcDbEntity
  8
TURRET
100
AcDbLine
 10
14140.74265275548
 20
5708.232993396067
 30
0.0
 11
13764.76050545167
 21
6741.23545323135
 31
0.0
  0
LINE
  5
DB
100
AcDbEntity
  8
TURRET
100
AcDbLine
 10
11927.64794980522
 20
5601.930431841442
 30
0.0
 11
12202.89025176721
 21
6666.21344510793
 31
0.0
  0
ARC
  5
DC
100
AcDbEntity
  8
TURRET
100
AcDbCircle
 10
13050.69921264383
 20
5311.48962713829
 30
0.0
 40
1159.999999999999
100
AcDbArc
 50
165.4999999999999
 51
19.99999999999985
  0
TEXT
  5
DD
100
AcDbEntity
  8
COMMENTS
100
AcDbText
 10
15287.6225868967
 20
4375.046352013309
 30
0.0
 40
40.36217290878631
  1
Drg version 1.0 / 12 Nov 2013
 41
0.6000000000000001
  7
ARIAL
 11
15287.6225868967
 21
4375.046352013309
 31
0.0
100
AcDbText
 73
     1
  0
ENDSEC
  0
SECTION
  2
OBJECTS
  0
DICTIONARY
  5
C
100
AcDbDictionary
  3
ACAD_GROUP
350
D
  3
ACAD_MLINESTYLE
350
1B
  3
ACDBVARIABLEDICTIONARY
350
1E
  0
DICTIONARY
  5
D
102
{ACAD_REACTORS
330
C
102
}
100
AcDbDictionary
  0
DICTIONARY
  5
1B
102
{ACAD_REACTORS
330
C
102
}
100
AcDbDictionary
  3
STANDARD
350
1C
  0
DICTIONARY
  5
1E
102
{ACAD_REACTORS
330
C
102
}
100
AcDbDictionary
  3
DIMADEC
350
1F
  0
MLINESTYLE
  5
1C
102
{ACAD_REACTORS
330
1B
102
}
100
AcDbMlineStyle
  2
STANDARD
 70
     0
  3

 62
   256
 51
90.0
 52
90.0
 71
     2
 49
0.5
 62
   256
  6
BYLAYER
 49
-0.5
 62
   256
  6
BYLAYER
  0
DICTIONARYVAR
  5
1F
102
{ACAD_REACTORS
330
1E
102
}
100
DictionaryVariables
280
     0
  1
-1
  0
ENDSEC
  0
EOF
