  0
SECTION
  2
HEADER
  9
$ACADVER
  1
AC1014
  9
$ACADMAINTVER
 70
     5
  9
$DWGCODEPAGE
  3
ANSI_1252
  9
$INSBASE
 10
0.0
 20
0.0
 30
0.0
  9
$EXTMIN
 10
1.000000000000000E+20
 20
1.000000000000000E+20
 30
1.000000000000000E+20
  9
$EXTMAX
 10
-1.000000000000000E+20
 20
-1.000000000000000E+20
 30
-1.000000000000000E+20
  9
$LIMMIN
 10
0.0
 20
0.0
  9
$LIMMAX
 10
12.0
 20
9.0
  9
$ORTHOMODE
 70
     0
  9
$REGENMODE
 70
     1
  9
$FILLMODE
 70
     1
  9
$QTEXTMODE
 70
     0
  9
$MIRRTEXT
 70
     1
  9
$DRAGMODE
 70
     2
  9
$LTSCALE
 40
1.0
  9
$OSMODE
 70
     1
  9
$ATTMODE
 70
     0
  9
$TEXTSIZE
 40
247.5288659096885
  9
$TRACEWID
 40
0.05
  9
$TEXTSTYLE
  7
STANDARD
  9
$CLAYER
  8
0
  9
$CELTYPE
  6
BYLAYER
  9
$CECOLOR
 62
   256
  9
$CELTSCALE
 40
1.0
  9
$DELOBJ
 70
     1
  9
$DISPSILH
 70
     0
  9
$DIMSCALE
 40
1.0
  9
$DIMASZ
 40
0.18
  9
$DIMEXO
 40
0.0625
  9
$DIMDLI
 40
0.38
  9
$DIMRND
 40
0.0
  9
$DIMDLE
 40
0.0
  9
$DIMEXE
 40
0.18
  9
$DIMTP
 40
0.0
  9
$DIMTM
 40
0.0
  9
$DIMTXT
 40
3.898092376530528
  9
$DIMCEN
 40
0.09
  9
$DIMTSZ
 40
0.0
  9
$DIMTOL
 70
     0
  9
$DIMLIM
 70
     0
  9
$DIMTIH
 70
     1
  9
$DIMTOH
 70
     1
  9
$DIMSE1
 70
     0
  9
$DIMSE2
 70
     0
  9
$DIMTAD
 70
     0
  9
$DIMZIN
 70
     0
  9
$DIMBLK
  1

  9
$DIMASO
 70
     1
  9
$DIMSHO
 70
     1
  9
$DIMPOST
  1

  9
$DIMAPOST
  1

  9
$DIMALT
 70
     0
  9
$DIMALTD
 70
     2
  9
$DIMALTF
 40
25.4
  9
$DIMLFAC
 40
1.0
  9
$DIMTOFL
 70
     0
  9
$DIMTVP
 40
0.0
  9
$DIMTIX
 70
     0
  9
$DIMSOXD
 70
     0
  9
$DIMSAH
 70
     0
  9
$DIMBLK1
  1

  9
$DIMBLK2
  1

  9
$DIMSTYLE
  2
STANDARD
  9
$DIMCLRD
 70
     0
  9
$DIMCLRE
 70
     0
  9
$DIMCLRT
 70
     0
  9
$DIMTFAC
 40
1.0
  9
$DIMGAP
 40
0.09
  9
$DIMJUST
 70
     0
  9
$DIMSD1
 70
     0
  9
$DIMSD2
 70
     0
  9
$DIMTOLJ
 70
     1
  9
$DIMTZIN
 70
     0
  9
$DIMALTZ
 70
     0
  9
$DIMALTTZ
 70
     0
  9
$DIMFIT
 70
     3
  9
$DIMUPT
 70
     0
  9
$DIMUNIT
 70
     4
  9
$DIMDEC
 70
    -1
  9
$DIMTDEC
 70
     4
  9
$DIMALTU
 70
     2
  9
$DIMALTTD
 70
     2
  9
$DIMTXSTY
  7
STANDARD
  9
$DIMAUNIT
 70
     1
  9
$LUNITS
 70
     2
  9
$LUPREC
 70
     1
  9
$SKETCHINC
 40
0.1
  9
$FILLETRAD
 40
3.999999999999999
  9
$AUNITS
 70
     0
  9
$AUPREC
 70
     2
  9
$MENU
  1
.
  9
$ELEVATION
 40
0.0
  9
$PELEVATION
 40
0.0
  9
$THICKNESS
 40
0.0
  9
$LIMCHECK
 70
     0
  9
$BLIPMODE
 70
     0
  9
$CHAMFERA
 40
0.9999999999999998
  9
$CHAMFERB
 40
0.9999999999999998
  9
$CHAMFERC
 40
0.0
  9
$CHAMFERD
 40
0.0
  9
$SKPOLY
 70
     0
  9
$TDCREATE
 40
0.0000000000
  9
$TDUPDATE
 40
0.0000000000
  9
$TDINDWG
 40
0.0000000000
  9
$TDUSRTIMER
 40
0.0000000000
  9
$USRTIMER
 70
     1
  9
$ANGBASE
 50
0.0
  9
$ANGDIR
 70
     0
  9
$PDMODE
 70
     0
  9
$PDSIZE
 40
0.0
  9
$PLINEWID
 40
0.0
  9
$COORDS
 70
     1
  9
$SPLFRAME
 70
     0
  9
$SPLINETYPE
 70
     6
  9
$SPLINESEGS
 70
     8
  9
$ATTDIA
 70
     0
  9
$ATTREQ
 70
     1
  9
$HANDLING
 70
     1
  9
$HANDSEED
  5
128
  9
$SURFTAB1
 70
     6
  9
$SURFTAB2
 70
     6
  9
$SURFTYPE
 70
     6
  9
$SURFU
 70
     6
  9
$SURFV
 70
     6
  9
$UCSNAME
  2

  9
$UCSORG
 10
0.0
 20
0.0
 30
0.0
  9
$UCSXDIR
 10
1.0
 20
0.0
 30
0.0
  9
$UCSYDIR
 10
0.0
 20
1.0
 30
0.0
  9
$PUCSNAME
  2

  9
$PUCSORG
 10
0.0
 20
0.0
 30
0.0
  9
$PUCSXDIR
 10
1.0
 20
0.0
 30
0.0
  9
$PUCSYDIR
 10
0.0
 20
1.0
 30
0.0
  9
$USERI1
 70
     0
  9
$USERI2
 70
     0
  9
$USERI3
 70
     0
  9
$USERI4
 70
     0
  9
$USERI5
 70
     0
  9
$USERR1
 40
0.0
  9
$USERR2
 40
0.0
  9
$USERR3
 40
0.0
  9
$USERR4
 40
0.0
  9
$USERR5
 40
0.0
  9
$WORLDVIEW
 70
     1
  9
$SHADEDGE
 70
     3
  9
$SHADEDIF
 70
    70
  9
$TILEMODE
 70
     1
  9
$MAXACTVP
 70
    48
  9
$PINSBASE
 10
0.0
 20
0.0
 30
0.0
  9
$PLIMCHECK
 70
     0
  9
$PEXTMIN
 10
1.000000000000000E+20
 20
1.000000000000000E+20
 30
1.000000000000000E+20
  9
$PEXTMAX
 10
-1.000000000000000E+20
 20
-1.000000000000000E+20
 30
-1.000000000000000E+20
  9
$PLIMMIN
 10
0.0
 20
0.0
  9
$PLIMMAX
 10
12.0
 20
9.0
  9
$UNITMODE
 70
     0
  9
$VISRETAIN
 70
     1
  9
$PLINEGEN
 70
     0
  9
$PSLTSCALE
 70
     1
  9
$TREEDEPTH
 70
  3020
  9
$PICKSTYLE
 70
     1
  9
$CMLSTYLE
  2
STANDARD
  9
$CMLJUST
 70
     0
  9
$CMLSCALE
 40
1.0
  9
$PROXYGRAPHICS
 70
     1
  9
$MEASUREMENT
 70
     0
  0
ENDSEC
  0
SECTION
  2
CLASSES
  0
CLASS
  1
DICTIONARYVAR
  2
AcDbDictionaryVar
  3
"AutoCAD"
 90
        0
280
     0
281
     0
  0
CLASS
  1
LWPOLYLINE
  2
AcDbPolyline
  3
"AutoCAD"
 90
        0
280
     0
281
     1
  0
ENDSEC
  0
SECTION
  2
TABLES
  0
TABLE
  2
VPORT
  5
8
100
AcDbSymbolTable
 70
     1
  0
VPORT
  5
11
100
AcDbSymbolTableRecord
100
AcDbViewportTableRecord
  2
*ACTIVE
 70
     0
 10
0.0
 20
0.0
 11
1.0
 21
1.0
 12
3.6
 22
4.5
 13
0.0
 23
0.0
 14
1.0
 24
1.0
 15
0.0
 25
0.0
 16
0.0
 26
0.0
 36
1.0
 17
0.0
 27
0.0
 37
0.0
 40
15.0
 41
0.8
 42
50.0
 43
0.0
 44
0.0
 50
0.0
 51
0.0
 71
     0
 72
   100
 73
     1
 74
     1
 75
     0
 76
     0
 77
     0
 78
     0
  0
ENDTAB
  0
TABLE
  2
LTYPE
  5
5
100
AcDbSymbolTable
 70
    40
  0
LTYPE
  5
12
100
AcDbSymbolTableRecord
100
AcDbLinetypeTableRecord
  2
BYBLOCK
 70
     0
  3

 72
    65
 73
     0
 40
0.0
  0
LTYPE
  5
13
100
AcDbSymbolTableRecord
100
AcDbLinetypeTableRecord
  2
BYLAYER
 70
     0
  3

 72
    65
 73
     0
 40
0.0
  0
LTYPE
  5
14
100
AcDbSymbolTableRecord
100
AcDbLinetypeTableRecord
  2
CONTINUOUS
 70
     0
  3
Solid line
 72
    65
 73
     0
 40
0.0
  0
LTYPE
  5
20
100
AcDbSymbolTableRecord
100
AcDbLinetypeTableRecord
  2
HIDDEN
 70
     0
  3
_ _ _ _ _ _ _ _ _ _ _ _ _ _ 
 72
    65
 73
     2
 40
9.524999999999998
 49
6.349999999999999
 74
     0
 49
-3.174999999999999
 74
     0
  0
LTYPE
  5
21
100
AcDbSymbolTableRecord
100
AcDbLinetypeTableRecord
  2
DASHED
 70
     0
  3
__ __ __ __ __ __ __ __ __ 
 72
    65
 73
     2
 40
19.04999999999999
 49
12.7
 74
     0
 49
-6.349999999999999
 74
     0
  0
LTYPE
  5
22
100
AcDbSymbolTableRecord
100
AcDbLinetypeTableRecord
  2
CENTER
 70
     0
  3
____ _ ____ _ ____ _ ____ _ 
 72
    65
 73
     4
 40
50.8
 49
31.75
 74
     0
 49
-6.349999999999999
 74
     0
 49
6.349999999999999
 74
     0
 49
-6.349999999999999
 74
     0
  0
LTYPE
  5
23
100
AcDbSymbolTableRecord
100
AcDbLinetypeTableRecord
  2
PHANTOM
 70
     0
  3
_____ _ _ _____ _ _ _____ _ _ 
 72
    65
 73
     6
 40
63.50000000000001
 49
31.75
 74
     0
 49
-6.349999999999999
 74
     0
 49
6.349999999999999
 74
     0
 49
-6.349999999999999
 74
     0
 49
6.349999999999999
 74
     0
 49
-6.349999999999999
 74
     0
  0
LTYPE
  5
24
100
AcDbSymbolTableRecord
100
AcDbLinetypeTableRecord
  2
DOT
 70
     0
  3
...........................
 72
    65
 73
     2
 40
6.349999999999999
 49
0.0
 74
     0
 49
-6.349999999999999
 74
     0
  0
LTYPE
  5
25
100
AcDbSymbolTableRecord
100
AcDbLinetypeTableRecord
  2
DASHDOT
 70
     0
  3
__ . __ . __ . __ . __ . __ . 
 72
    65
 73
     4
 40
25.4
 49
12.7
 74
     0
 49
-6.349999999999999
 74
     0
 49
0.0
 74
     0
 49
-6.349999999999999
 74
     0
  0
LTYPE
  5
26
100
AcDbSymbolTableRecord
100
AcDbLinetypeTableRecord
  2
DIVIDE
 70
     0
  3
__ . . __ . . __ . . __ . . 
 72
    65
 73
     6
 40
31.75
 49
12.7
 74
     0
 49
-6.349999999999999
 74
     0
 49
0.0
 74
     0
 49
-6.349999999999999
 74
     0
 49
0.0
 74
     0
 49
-6.349999999999999
 74
     0
  0
LTYPE
  5
27
100
AcDbSymbolTableRecord
100
AcDbLinetypeTableRecord
  2
BORDER
 70
     0
  3
__ __ . __ __ . __ __ . __ __ .
 72
    65
 73
     6
 40
44.44999999999999
 49
12.7
 74
     0
 49
-6.349999999999999
 74
     0
 49
12.7
 74
     0
 49
-6.349999999999999
 74
     0
 49
0.0
 74
     0
 49
-6.349999999999999
 74
     0
  0
LTYPE
  5
28
100
AcDbSymbolTableRecord
100
AcDbLinetypeTableRecord
  2
BORDER2
 70
     0
  3
Border (.5x) __.__.__.__.__.__.
 72
    65
 73
     6
 40
0.875
 49
0.25
 74
     0
 49
-0.125
 74
     0
 49
0.25
 74
     0
 49
-0.125
 74
     0
 49
0.0
 74
     0
 49
-0.125
 74
     0
  0
LTYPE
  5
29
100
AcDbSymbolTableRecord
100
AcDbLinetypeTableRecord
  2
BORDERX2
 70
     0
  3
Border (2x) ____  ____  .  ____
 72
    65
 73
     6
 40
3.5
 49
1.0
 74
     0
 49
-0.5
 74
     0
 49
1.0
 74
     0
 49
-0.5
 74
     0
 49
0.0
 74
     0
 49
-0.5
 74
     0
  0
LTYPE
  5
2A
100
AcDbSymbolTableRecord
100
AcDbLinetypeTableRecord
  2
CENTER2
 70
     0
  3
Center (.5x) ___ _ ___ _ ___ _ 
 72
    65
 73
     4
 40
1.125
 49
0.75
 74
     0
 49
-0.125
 74
     0
 49
0.125
 74
     0
 49
-0.125
 74
     0
  0
LTYPE
  5
2B
100
AcDbSymbolTableRecord
100
AcDbLinetypeTableRecord
  2
CENTERX2
 70
     0
  3
Center (2x) ________  __  _____
 72
    65
 73
     4
 40
4.0
 49
2.5
 74
     0
 49
-0.5
 74
     0
 49
0.5
 74
     0
 49
-0.5
 74
     0
  0
LTYPE
  5
2C
100
AcDbSymbolTableRecord
100
AcDbLinetypeTableRecord
  2
DASHDOT2
 70
     0
  3
Dash dot (.5x) _._._._._._._._.
 72
    65
 73
     4
 40
0.5
 49
0.25
 74
     0
 49
-0.125
 74
     0
 49
0.0
 74
     0
 49
-0.125
 74
     0
  0
LTYPE
  5
2D
100
AcDbSymbolTableRecord
100
AcDbLinetypeTableRecord
  2
DASHDOTX2
 70
     0
  3
Dash dot (2x) ____  .  ____  . 
 72
    65
 73
     4
 40
2.0
 49
1.0
 74
     0
 49
-0.5
 74
     0
 49
0.0
 74
     0
 49
-0.5
 74
     0
  0
LTYPE
  5
2E
100
AcDbSymbolTableRecord
100
AcDbLinetypeTableRecord
  2
DASHED2
 70
     0
  3
Dashed (.5x) _ _ _ _ _ _ _ _ _ 
 72
    65
 73
     2
 40
0.375
 49
0.25
 74
     0
 49
-0.125
 74
     0
  0
LTYPE
  5
2F
100
AcDbSymbolTableRecord
100
AcDbLinetypeTableRecord
  2
DASHEDX2
 70
     0
  3
Dashed (2x) ____  ____  ____  _
 72
    65
 73
     2
 40
1.5
 49
1.0
 74
     0
 49
-0.5
 74
     0
  0
LTYPE
  5
30
100
AcDbSymbolTableRecord
100
AcDbLinetypeTableRecord
  2
DIVIDE2
 70
     0
  3
Divide (.5x) __..__..__..__..__
 72
    65
 73
     6
 40
0.625
 49
0.25
 74
     0
 49
-0.125
 74
     0
 49
0.0
 74
     0
 49
-0.125
 74
     0
 49
0.0
 74
     0
 49
-0.125
 74
     0
  0
LTYPE
  5
31
100
AcDbSymbolTableRecord
100
AcDbLinetypeTableRecord
  2
DIVIDEX2
 70
     0
  3
Divide (2x) ________  .  .  ___
 72
    65
 73
     6
 40
2.5
 49
1.0
 74
     0
 49
-0.5
 74
     0
 49
0.0
 74
     0
 49
-0.5
 74
     0
 49
0.0
 74
     0
 49
-0.5
 74
     0
  0
LTYPE
  5
32
100
AcDbSymbolTableRecord
100
AcDbLinetypeTableRecord
  2
DOT2
 70
     0
  3
Dot (.5x) .....................
 72
    65
 73
     2
 40
0.125
 49
0.0
 74
     0
 49
-0.125
 74
     0
  0
LTYPE
  5
33
100
AcDbSymbolTableRecord
100
AcDbLinetypeTableRecord
  2
DOTX2
 70
     0
  3
Dot (2x) .  .  .  .  .  .  .  .
 72
    65
 73
     2
 40
0.5
 49
0.0
 74
     0
 49
-0.5
 74
     0
  0
LTYPE
  5
34
100
AcDbSymbolTableRecord
100
AcDbLinetypeTableRecord
  2
HIDDEN2
 70
     0
  3
Hidden (.5x) _ _ _ _ _ _ _ _ _ 
 72
    65
 73
     2
 40
0.1875
 49
0.125
 74
     0
 49
-0.0625
 74
     0
  0
LTYPE
  5
35
100
AcDbSymbolTableRecord
100
AcDbLinetypeTableRecord
  2
HIDDENX2
 70
     0
  3
Hidden (2x) ____ ____ ____ ____
 72
    65
 73
     2
 40
0.75
 49
0.5
 74
     0
 49
-0.25
 74
     0
  0
LTYPE
  5
36
100
AcDbSymbolTableRecord
100
AcDbLinetypeTableRecord
  2
PHANTOM2
 70
     0
  3
Phantom (.5x) ___ _ _ ___ _ _ _
 72
    65
 73
     6
 40
1.25
 49
0.625
 74
     0
 49
-0.125
 74
     0
 49
0.125
 74
     0
 49
-0.125
 74
     0
 49
0.125
 74
     0
 49
-0.125
 74
     0
  0
LTYPE
  5
37
100
AcDbSymbolTableRecord
100
AcDbLinetypeTableRecord
  2
PHANTOMX2
 70
     0
  3
Phantom (2x) ____________    __
 72
    65
 73
     6
 40
5.0
 49
2.5
 74
     0
 49
-0.5
 74
     0
 49
0.5
 74
     0
 49
-0.5
 74
     0
 49
0.5
 74
     0
 49
-0.5
 74
     0
  0
LTYPE
  5
38
100
AcDbSymbolTableRecord
100
AcDbLinetypeTableRecord
  2
DOTS
 70
     0
  3
Dots - - - - - - - - - - - - - 
 72
    65
 73
     2
 40
0.1
 49
0.05
 74
     0
 49
-0.05
 74
     0
  0
LTYPE
  5
39
100
AcDbSymbolTableRecord
100
AcDbLinetypeTableRecord
  2
ACAD_ISO02W100
 70
     0
  3
__ __ __ __ __ __ __ __ __ __ _
 72
    65
 73
     2
 40
15.0
 49
12.0
 74
     0
 49
-3.0
 74
     0
  0
LTYPE
  5
3A
100
AcDbSymbolTableRecord
100
AcDbLinetypeTableRecord
  2
ACAD_ISO03W100
 70
     0
  3
__    __    __    __    __    _
 72
    65
 73
     2
 40
30.0
 49
12.0
 74
     0
 49
-18.0
 74
     0
  0
LTYPE
  5
3B
100
AcDbSymbolTableRecord
100
AcDbLinetypeTableRecord
  2
ACAD_ISO04W100
 70
     0
  3
____ . ____ . ____ . ____ . ___
 72
    65
 73
     4
 40
30.5
 49
24.0
 74
     0
 49
-3.0
 74
     0
 49
0.5
 74
     0
 49
-3.0
 74
     0
  0
LTYPE
  5
3C
100
AcDbSymbolTableRecord
100
AcDbLinetypeTableRecord
  2
ACAD_ISO05W100
 70
     0
  3
____ .. ____ .. ____ .. ____ ..
 72
    65
 73
     6
 40
34.0
 49
24.0
 74
     0
 49
-3.0
 74
     0
 49
0.5
 74
     0
 49
-3.0
 74
     0
 49
0.5
 74
     0
 49
-3.0
 74
     0
  0
LTYPE
  5
3D
100
AcDbSymbolTableRecord
100
AcDbLinetypeTableRecord
  2
ACAD_ISO06W100
 70
     0
  3
____ ... ____ ... ____ ... ____
 72
    65
 73
     6
 40
34.0
 49
24.0
 74
     0
 49
-3.0
 74
     0
 49
0.5
 74
     0
 49
-3.0
 74
     0
 49
0.5
 74
     0
 49
-3.0
 74
     0
  0
LTYPE
  5
3E
100
AcDbSymbolTableRecord
100
AcDbLinetypeTableRecord
  2
ACAD_ISO07W100
 70
     0
  3
. . . . . . . . . . . . . . . .
 72
    65
 73
     2
 40
3.5
 49
0.5
 74
     0
 49
-3.0
 74
     0
  0
LTYPE
  5
3F
100
AcDbSymbolTableRecord
100
AcDbLinetypeTableRecord
  2
ACAD_ISO08W100
 70
     0
  3
____ __ ____ __ ____ __ ____ __
 72
    65
 73
     4
 40
36.0
 49
24.0
 74
     0
 49
-3.0
 74
     0
 49
6.0
 74
     0
 49
-3.0
 74
     0
  0
LTYPE
  5
40
100
AcDbSymbolTableRecord
100
AcDbLinetypeTableRecord
  2
ACAD_ISO09W100
 70
     0
  3
____ __ __ ____ __ __ ____ __ _
 72
    65
 73
     6
 40
45.0
 49
24.0
 74
     0
 49
-3.0
 74
     0
 49
6.0
 74
     0
 49
-3.0
 74
     0
 49
6.0
 74
     0
 49
-3.0
 74
     0
  0
LTYPE
  5
41
100
AcDbSymbolTableRecord
100
AcDbLinetypeTableRecord
  2
ACAD_ISO10W100
 70
     0
  3
__ . __ . __ . __ . __ . __ . _
 72
    65
 73
     4
 40
18.5
 49
12.0
 74
     0
 49
-3.0
 74
     0
 49
0.5
 74
     0
 49
-3.0
 74
     0
  0
LTYPE
  5
42
100
AcDbSymbolTableRecord
100
AcDbLinetypeTableRecord
  2
ACAD_ISO11W100
 70
     0
  3
__ __ . __ __ . __ __ . __ __ .
 72
    65
 73
     6
 40
33.5
 49
12.0
 74
     0
 49
-3.0
 74
     0
 49
12.0
 74
     0
 49
-3.0
 74
     0
 49
0.5
 74
     0
 49
-3.0
 74
     0
  0
LTYPE
  5
43
100
AcDbSymbolTableRecord
100
AcDbLinetypeTableRecord
  2
ACAD_ISO12W100
 70
     0
  3
__ . . __ . . __ . . __ . . __ 
 72
    65
 73
     6
 40
22.0
 49
12.0
 74
     0
 49
-3.0
 74
     0
 49
0.5
 74
     0
 49
-3.0
 74
     0
 49
0.5
 74
     0
 49
-3.0
 74
     0
  0
LTYPE
  5
44
100
AcDbSymbolTableRecord
100
AcDbLinetypeTableRecord
  2
ACAD_ISO13W100
 70
     0
  3
__ __ . . __ __ . . __ __ . . _
 72
    65
 73
     6
 40
33.5
 49
12.0
 74
     0
 49
-3.0
 74
     0
 49
12.0
 74
     0
 49
-3.0
 74
     0
 49
0.5
 74
     0
 49
-3.0
 74
     0
  0
LTYPE
  5
45
100
AcDbSymbolTableRecord
100
AcDbLinetypeTableRecord
  2
ACAD_ISO14W100
 70
     0
  3
__ . . . __ . . . __ . . . __ .
 72
    65
 73
     6
 40
22.0
 49
12.0
 74
     0
 49
-3.0
 74
     0
 49
0.5
 74
     0
 49
-3.0
 74
     0
 49
0.5
 74
     0
 49
-3.0
 74
     0
  0
LTYPE
  5
46
100
AcDbSymbolTableRecord
100
AcDbLinetypeTableRecord
  2
ACAD_ISO15W100
 70
     0
  3
__ __ . . . __ __ . . . __ __ .
 72
    65
 73
     6
 40
33.5
 49
12.0
 74
     0
 49
-3.0
 74
     0
 49
12.0
 74
     0
 49
-3.0
 74
     0
 49
0.5
 74
     0
 49
-3.0
 74
     0
  0
ENDTAB
  0
TABLE
  2
LAYER
  5
2
100
AcDbSymbolTable
 70
     5
  0
LAYER
  5
E
100
AcDbSymbolTableRecord
100
AcDbLayerTableRecord
  2
0
 70
     0
 62
     7
  6
CONTINUOUS
  0
LAYER
  5
47
100
AcDbSymbolTableRecord
100
AcDbLayerTableRecord
  2
ARMOUR
 70
     4
 62
     7
  6
CONTINUOUS
  0
LAYER
  5
48
100
AcDbSymbolTableRecord
100
AcDbLayerTableRecord
  2
AXES
 70
     0
 62
     1
  6
CONTINUOUS
  0
LAYER
  5
49
100
AcDbSymbolTableRecord
100
AcDbLayerTableRecord
  2
BIN
 70
     0
 62
     7
  6
CONTINUOUS
  0
LAYER
  5
4A
100
AcDbSymbolTableRecord
100
AcDbLayerTableRecord
  2
COMMENTS
 70
     0
 62
    94
  6
CONTINUOUS
  0
ENDTAB
  0
TABLE
  2
STYLE
  5
3
100
AcDbSymbolTable
 70
     5
  0
STYLE
  5
F
100
AcDbSymbolTableRecord
100
AcDbTextStyleTableRecord
  2
STANDARD
 70
     0
 40
0.0
 41
1.0
 50
0.0
 71
     0
 42
247.5288659096885
  3
txt
  4

  0
STYLE
  5
4B
100
AcDbSymbolTableRecord
100
AcDbTextStyleTableRecord
  2
ITALIC
 70
     0
 40
0.0
 41
1.0
 50
0.0
 71
     0
 42
247.5288659096885
  3
ITALIC
  4

  0
STYLE
  5
4C
100
AcDbSymbolTableRecord
100
AcDbTextStyleTableRecord
  2
SIMPLEX
 70
     0
 40
0.0
 41
1.0
 50
0.0
 71
     0
 42
247.5288659096885
  3
SIMPLEX
  4

  0
STYLE
  5
4D
100
AcDbSymbolTableRecord
100
AcDbTextStyleTableRecord
  2
COMPLEX
 70
     0
 40
0.0
 41
1.0
 50
0.0
 71
     0
 42
247.5288659096885
  3
COMPLEX
  4

  0
STYLE
  5
92
100
AcDbSymbolTableRecord
100
AcDbTextStyleTableRecord
  2
ARIAL
 70
     0
 40
0.0
 41
1.0
 50
0.0
 71
     0
 42
247.5288659096885
  3
ARIAL.TTF
  4

1001
ACAD
1000
Arial
1071
        0
  0
ENDTAB
  0
TABLE
  2
VIEW
  5
6
100
AcDbSymbolTable
 70
     0
  0
ENDTAB
  0
TABLE
  2
UCS
  5
7
100
AcDbSymbolTable
 70
     0
  0
ENDTAB
  0
TABLE
  2
APPID
  5
9
100
AcDbSymbolTable
 70
     1
  0
APPID
  5
10
100
AcDbSymbolTableRecord
100
AcDbRegAppTableRecord
  2
ACAD
 70
     0
  0
ENDTAB
  0
TABLE
  2
DIMSTYLE
  5
A
100
AcDbSymbolTable
 70
     1
  0
DIMSTYLE
105
1D
100
AcDbSymbolTableRecord
100
AcDbDimStyleTableRecord
  2
STANDARD
 70
     0
  3

  4

  5

  6

  7

 40
1.0
 41
0.18
 42
0.0625
 43
0.38
 44
0.18
 45
0.0
 46
0.0
 47
0.0
 48
0.0
140
0.18
141
0.09
142
0.0
143
25.4
144
1.0
145
0.0
146
1.0
147
0.09
 71
     0
 72
     0
 73
     1
 74
     1
 75
     0
 76
     0
 77
     0
 78
     0
170
     0
171
     2
172
     0
173
     0
174
     0
175
     0
176
     0
177
     0
178
     0
270
     2
271
     4
272
     4
273
     2
274
     2
340
F
275
     0
280
     0
281
     0
282
     0
283
     1
284
     0
285
     0
286
     0
287
     3
288
     0
  0
ENDTAB
  0
TABLE
  2
BLOCK_RECORD
  5
1
100
AcDbSymbolTable
 70
     0
  0
BLOCK_RECORD
  5
18
100
AcDbSymbolTableRecord
100
AcDbBlockTableRecord
  2
*MODEL_SPACE
  0
BLOCK_RECORD
  5
15
100
AcDbSymbolTableRecord
100
AcDbBlockTableRecord
  2
*PAPER_SPACE
  0
ENDTAB
  0
ENDSEC
  0
SECTION
  2
BLOCKS
  0
BLOCK
  5
19
100
AcDbEntity
  8
0
100
AcDbBlockBegin
  2
*MODEL_SPACE
 70
     0
 10
0.0
 20
0.0
 30
0.0
  3
*MODEL_SPACE
  1

  0
ENDBLK
  5
1A
100
AcDbEntity
  8
0
100
AcDbBlockEnd
  0
BLOCK
  5
16
100
AcDbEntity
 67
     1
  8
0
100
AcDbBlockBegin
  2
*PAPER_SPACE
 70
     0
 10
0.0
 20
0.0
 30
0.0
  3
*PAPER_SPACE
  1

  0
ENDBLK
  5
17
100
AcDbEntity
 67
     1
  8
0
100
AcDbBlockEnd
  0
ENDSEC
  0
SECTION
  2
ENTITIES
  0
ARC
  5
4E
100
AcDbEntity
  8
ARMOUR
  6
CONTINUOUS
100
AcDbCircle
 10
-2213.45812730839
 20
-3993.444576414951
 30
0.0
 40
1159.999999999999
100
AcDbArc
 50
354.7114434284416
 51
187.874834254201
  0
LINE
  5
4F
100
AcDbEntity
  8
AXES
  6
CONTINUOUS
100
AcDbLine
 10
-2213.45812730839
 20
-4163.208490010624
 30
0.0
 11
-2213.45812730839
 21
-1133.809280091236
 31
0.0
  0
LINE
  5
50
100
AcDbEntity
  8
ARMOUR
  6
CONTINUOUS
100
AcDbLine
 10
-3373.458127308389
 20
-2074.189141336093
 30
0.0
 11
-3373.458127308389
 21
-1259.189141336093
 31
0.0
  0
LINE
  5
51
100
AcDbEntity
  8
ARMOUR
  6
CONTINUOUS
100
AcDbLine
 10
-3186.898828534259
 20
-3269.612563553137
 30
0.0
 11
-2937.290133426709
 21
-3020.003868445586
 31
0.0
  0
LINE
  5
52
100
AcDbEntity
  8
ARMOUR
  6
CONTINUOUS
100
AcDbLine
 10
-3175.231576085575
 20
-3293.30065016378
 30
0.0
 11
-2913.602053559561
 21
-3031.671127637766
 31
0.0
  0
LINE
  5
53
100
AcDbEntity
  8
ARMOUR
  6
CONTINUOUS
100
AcDbLine
 10
-3186.898835277754
 20
-3269.612570296632
 30
0.0
 11
-3175.231576085575
 21
-3293.30065016378
 31
0.0
  0
LINE
  5
54
100
AcDbEntity
  8
ARMOUR
  6
CONTINUOUS
100
AcDbLine
 10
-3175.231576085575
 20
-3293.30065016378
 30
0.0
 11
-3150.374619124061
 21
-3318.157607125294
 31
0.0
  0
LINE
  5
55
100
AcDbEntity
  8
ARMOUR
  6
CONTINUOUS
100
AcDbLine
 10
-2937.290133426709
 20
-3020.003868445586
 30
0.0
 11
-2913.602053559561
 21
-3031.671127637766
 31
0.0
  0
LINE
  5
56
100
AcDbEntity
  8
ARMOUR
  6
CONTINUOUS
100
AcDbLine
 10
-2913.602053559561
 20
-3031.671127637766
 30
0.0
 11
-2888.745096598047
 21
-3056.52808459928
 31
0.0
  0
LINE
  5
57
100
AcDbEntity
  8
ARMOUR
  6
CONTINUOUS
100
AcDbLine
 10
-3373.458127308389
 20
-2074.189141336093
 30
0.0
 11
-1380.865691953365
 21
-2074.189141336093
 31
0.0
  0
LINE
  5
58
100
AcDbEntity
  8
ARMOUR
  6
CONTINUOUS
100
AcDbLine
 10
-3373.458127308389
 20
-1259.189141336093
 30
0.0
 11
-2805.458127308405
 21
-1259.189141336092
 31
0.0
  0
LWPOLYLINE
  5
59
100
AcDbEntity
  8
ARMOUR
  6
CONTINUOUS
 62
     7
100
AcDbPolyline
 90
       36
 70
     0
 43
0.0
 10
-3033.701993484787
 20
-1494.189141336094
 10
-3020.997948512941
 20
-1494.933896946974
 10
-3008.396189041354
 20
-1497.162167445346
 10
-2995.99817702757
 20
-1500.856012107361
 10
-2983.903733974418
 20
-1505.985690267743
 10
-2972.210237225939
 20
-1512.509900774146
 10
-2961.011835942288
 20
-1520.376114519748
 10
-2950.398693066048
 20
-1529.520997376728
 10
-2940.456259383236
 20
-1539.870920125425
 10
-2931.264585523802
 20
-1551.342551273524
 10
-2922.897677441053
 20
-1563.843527992228
 10
-2915.422900559201
 20
-1577.273199767454
 10
-2908.900437386611
 20
-1591.523438778589
 10
-2903.382802961596
 20
-1606.479510480118
 10
-2898.914422032228
 20
-1622.020997376728
 10
-2895.531271374386
 20
-1638.022768554175
 10
-2893.260590127912
 20
-1654.355987159828
 10
-2892.120660483056
 20
-1670.889147721248
 10
-2892.120660483056
 20
-1687.489134950939
 10
-2893.260590127912
 20
-1704.02229551236
 10
-2895.531271374386
 20
-1720.355514118012
 10
-2898.914422032228
 20
-1736.357285295459
 10
-2903.382802961596
 20
-1751.898772192069
 10
-2908.900437386611
 20
-1766.854843893598
 10
-2915.422900559201
 20
-1781.105082904733
 10
-2922.897677441053
 20
-1794.534754679959
 10
-2931.264585523802
 20
-1807.035731398663
 10
-2940.456259383236
 20
-1818.507362546761
 10
-2950.398693066048
 20
-1828.857285295458
 10
-2961.011835942288
 20
-1838.002168152438
 10
-2972.210237225939
 20
-1845.868381898041
 10
-2983.903733974418
 20
-1852.392592404444
 10
-2995.99817702757
 20
-1857.522270564826
 10
-3008.396189041354
 20
-1861.21611522684
 10
-3020.997948512941
 20
-1863.444385725212
 10
-3033.701993484787
 20
-1864.189141336093
  0
LWPOLYLINE
  5
5A
100
AcDbEntity
  8
ARMOUR
  6
CONTINUOUS
 62
     7
100
AcDbPolyline
 90
       36
 70
     0
 43
0.0
 10
-3088.385738144594
 20
-1506.878184032887
 10
-3074.590042385777
 20
-1500.477576013546
 10
-3060.377762695973
 20
-1496.278476348818
 10
-3045.92397701386
 20
-1494.332612821278
 10
-3031.406738337167
 20
-1494.66395609452
 10
-3017.004881327071
 20
-1497.268424423842
 10
-3002.895819283451
 20
-1502.113933938369
 10
-2989.25335862957
 20
-1509.14079387517
 10
-2976.245557829091
 20
-1518.262441896602
 10
-2964.032657110931
 20
-1529.366510432665
 10
-2952.765104505226
 20
-1542.316210912297
 10
-2942.581702507231
 20
-1556.952018831616
 10
-2933.607898199995
 20
-1573.093638901102
 10
-2925.954237899414
 20
-1590.542226063491
 10
-2919.715005358562
 20
-1609.082835022183
 10
-2914.967060306907
 20
-1628.487068104937
 10
-2911.768891632295
 20
-1648.515888844416
 10
-2910.15989686919
 20
-1668.92256661571
 10
-2910.15989686919
 20
-1689.455716056476
 10
-2911.768891632295
 20
-1709.86239382777
 10
-2914.967060306907
 20
-1729.89121456725
 10
-2919.715005358562
 20
-1749.295447650004
 10
-2925.954237899414
 20
-1767.836056608695
 10
-2933.607898199995
 20
-1785.284643771084
 10
-2942.581702507231
 20
-1801.42626384057
 10
-2952.765104505226
 20
-1816.06207175989
 10
-2964.032657110931
 20
-1829.011772239521
 10
-2976.245557829091
 20
-1840.115840775583
 10
-2989.25335862957
 20
-1849.237488797017
 10
-3002.895819283451
 20
-1856.264348733818
 10
-3017.004881327071
 20
-1861.109858248345
 10
-3031.406738337167
 20
-1863.714326577667
 10
-3045.92397701386
 20
-1864.045669850908
 10
-3060.37776269597
 20
-1862.099806323368
 10
-3074.590042385777
 20
-1857.900706658642
 10
-3088.385738144591
 20
-1851.5000986393
  0
LWPOLYLINE
  5
5B
100
AcDbEntity
  8
ARMOUR
  6
CONTINUOUS
 62
     7
100
AcDbPolyline
 90
       36
 70
     0
 43
0.0
 10
-3183.597751632431
 20
-1671.071508031921
 10
-3180.657454288121
 20
-1640.409633194733
 10
-3173.948220751641
 20
-1610.957746392982
 10
-3163.679390766973
 20
-1583.634797669074
 10
-3150.171369672268
 20
-1559.293310498252
 10
-3133.845631196578
 20
-1538.692781574851
 10
-3115.211566747165
 20
-1522.47598319578
 10
-3094.850591512515
 20
-1511.148907648001
 10
-3073.398003298209
 20
-1505.064979369991
 10
-3051.523160131526
 20
-1504.414027495169
 10
-3029.908595127952
 20
-1509.216362853091
 10
-3009.228720272041
 20
-1519.322144236281
 10
-2990.128783591659
 20
-1534.416053706259
 10
-2973.204736298372
 20
-1554.027135061107
 10
-2958.98463807415
 20
-1577.543488487269
 10
-2947.912180691754
 20
-1604.231362896958
 10
-2940.332844060491
 20
-1633.25805023701
 10
-2936.483116652743
 20
-1663.717867427029
 10
-2936.483116652743
 20
-1694.660415245158
 10
-2940.332844060491
 20
-1725.120232435177
 10
-2947.912180691754
 20
-1754.146919775229
 10
-2958.98463807415
 20
-1780.834794184918
 10
-2973.204736298372
 20
-1804.35114761108
 10
-2990.128783591659
 20
-1823.962228965927
 10
-3009.228720272041
 20
-1839.056138435906
 10
-3029.908595127952
 20
-1849.161919819096
 10
-3051.523160131526
 20
-1853.964255177018
 10
-3073.398003298209
 20
-1853.313303302196
 10
-3094.850591512515
 20
-1847.229375024186
 10
-3115.211566747165
 20
-1835.902299476406
 10
-3133.845631196578
 20
-1819.685501097335
 10
-3150.171369672268
 20
-1799.084972173934
 10
-3163.679390766973
 20
-1774.743485003112
 10
-3173.948220751641
 20
-1747.420536279205
 10
-3180.657454288121
 20
-1717.968649477454
 10
-3183.597751632431
 20
-1687.306774640266
  0
LWPOLYLINE
  5
5C
100
AcDbEntity
  8
ARMOUR
  6
CONTINUOUS
 62
     7
100
AcDbPolyline
 90
       36
 70
     1
 43
0.0
 10
-3099.81647752573
 20
-1809.092951903759
 10
-3100.058184695226
 20
-1813.000035901265
 10
-3100.775962053681
 20
-1816.788405128587
 10
-3101.948000299271
 20
-1820.34295190376
 10
-3103.538687642984
 20
-1823.555673121706
 10
-3105.499691854805
 20
-1826.328951873936
 10
-3107.77142881408
 20
-1828.578523488909
 10
-3110.284872942848
 20
-1830.236035871443
 10
-3112.963654513126
 20
-1831.251126346534
 10
-3115.726380102427
 20
-1831.592951903759
 10
-3118.489105691727
 20
-1831.251126346534
 10
-3121.167887262005
 20
-1830.236035871443
 10
-3123.681331390773
 20
-1828.578523488909
 10
-3125.953068350049
 20
-1826.328951873936
 10
-3127.914072561869
 20
-1823.555673121706
 10
-3129.504759905582
 20
-1820.34295190376
 10
-3130.676798151172
 20
-1816.788405128587
 10
-3131.394575509627
 20
-1813.000035901265
 10
-3131.636282679123
 20
-1809.092951903759
 10
-3131.394575509627
 20
-1805.185867906254
 10
-3130.676798151172
 20
-1801.397498678931
 10
-3129.504759905582
 20
-1797.84295190376
 10
-3127.914072561869
 20
-1794.630230685813
 10
-3125.953068350049
 20
-1791.856951933583
 10
-3123.681331390776
 20
-1789.60738031861
 10
-3121.167887262005
 20
-1787.949867936077
 10
-3118.489105691727
 20
-1786.934777460985
 10
-3115.726380102427
 20
-1786.59295190376
 10
-3112.963654513126
 20
-1786.934777460985
 10
-3110.284872942848
 20
-1787.949867936077
 10
-3107.77142881408
 20
-1789.60738031861
 10
-3105.499691854805
 20
-1791.856951933583
 10
-3103.538687642984
 20
-1794.630230685813
 10
-3101.948000299271
 20
-1797.842951903759
 10
-3100.775962053681
 20
-1801.397498678931
 10
-3100.058184695226
 20
-1805.185867906254
  0
LWPOLYLINE
  5
5D
100
AcDbEntity
  8
ARMOUR
  6
CONTINUOUS
 62
     7
100
AcDbPolyline
 90
       36
 70
     1
 43
0.0
 10
-3099.81647752573
 20
-1549.285330768427
 10
-3100.058184695226
 20
-1553.192414765933
 10
-3100.775962053681
 20
-1556.980783993255
 10
-3101.948000299271
 20
-1560.535330768428
 10
-3103.538687642984
 20
-1563.748051986375
 10
-3105.499691854805
 20
-1566.521330738605
 10
-3107.77142881408
 20
-1568.770902353578
 10
-3110.284872942848
 20
-1570.42841473611
 10
-3112.963654513126
 20
-1571.443505211202
 10
-3115.726380102427
 20
-1571.785330768428
 10
-3118.489105691727
 20
-1571.443505211202
 10
-3121.167887262005
 20
-1570.42841473611
 10
-3123.681331390776
 20
-1568.770902353578
 10
-3125.953068350049
 20
-1566.521330738605
 10
-3127.914072561869
 20
-1563.748051986375
 10
-3129.504759905582
 20
-1560.535330768428
 10
-3130.676798151172
 20
-1556.980783993255
 10
-3131.394575509627
 20
-1553.192414765933
 10
-3131.636282679123
 20
-1549.285330768427
 10
-3131.394575509627
 20
-1545.378246770921
 10
-3130.676798151172
 20
-1541.589877543599
 10
-3129.504759905582
 20
-1538.035330768427
 10
-3127.914072561869
 20
-1534.82260955048
 10
-3125.953068350049
 20
-1532.049330798251
 10
-3123.681331390776
 20
-1529.799759183277
 10
-3121.167887262005
 20
-1528.142246800744
 10
-3118.489105691727
 20
-1527.127156325652
 10
-3115.726380102427
 20
-1526.785330768427
 10
-3112.963654513126
 20
-1527.127156325652
 10
-3110.284872942848
 20
-1528.142246800744
 10
-3107.77142881408
 20
-1529.799759183277
 10
-3105.499691854805
 20
-1532.049330798251
 10
-3103.538687642984
 20
-1534.82260955048
 10
-3101.948000299271
 20
-1538.035330768427
 10
-3100.775962053681
 20
-1541.589877543599
 10
-3100.058184695226
 20
-1545.378246770921
  0
LWPOLYLINE
  5
5E
100
AcDbEntity
  8
ARMOUR
  6
CONTINUOUS
 62
     7
100
AcDbPolyline
 90
       36
 70
     1
 43
0.0
 10
-2940.717451758755
 20
-1679.189141336093
 10
-2940.959158928252
 20
-1683.096225333599
 10
-2941.676936286707
 20
-1686.884594560922
 10
-2942.848974532297
 20
-1690.439141336094
 10
-2944.43966187601
 20
-1693.65186255404
 10
-2946.40066608783
 20
-1696.425141306271
 10
-2948.672403047106
 20
-1698.674712921243
 10
-2951.185847175874
 20
-1700.332225303776
 10
-2953.864628746152
 20
-1701.347315778868
 10
-2956.627354335452
 20
-1701.689141336093
 10
-2959.390079924753
 20
-1701.347315778868
 10
-2962.068861495031
 20
-1700.332225303776
 10
-2964.582305623799
 20
-1698.674712921243
 10
-2966.854042583074
 20
-1696.425141306271
 10
-2968.815046794895
 20
-1693.65186255404
 10
-2970.405734138607
 20
-1690.439141336094
 10
-2971.577772384197
 20
-1686.884594560922
 10
-2972.295549742653
 20
-1683.096225333599
 10
-2972.537256912148
 20
-1679.189141336093
 10
-2972.295549742653
 20
-1675.282057338588
 10
-2971.577772384197
 20
-1671.493688111266
 10
-2970.405734138607
 20
-1667.939141336094
 10
-2968.815046794895
 20
-1664.726420118147
 10
-2966.854042583074
 20
-1661.953141365917
 10
-2964.582305623801
 20
-1659.703569750944
 10
-2962.068861495031
 20
-1658.046057368411
 10
-2959.390079924753
 20
-1657.030966893319
 10
-2956.627354335452
 20
-1656.689141336094
 10
-2953.864628746152
 20
-1657.030966893319
 10
-2951.185847175874
 20
-1658.046057368411
 10
-2948.672403047106
 20
-1659.703569750944
 10
-2946.40066608783
 20
-1661.953141365917
 10
-2944.43966187601
 20
-1664.726420118147
 10
-2942.848974532297
 20
-1667.939141336093
 10
-2941.676936286707
 20
-1671.493688111266
 10
-2940.959158928252
 20
-1675.282057338588
  0
LWPOLYLINE
  5
5F
100
AcDbEntity
  8
ARMOUR
  6
CONTINUOUS
 62
     7
100
AcDbPolyline
 90
       36
 70
     0
 43
0.0
 10
-2954.506033991891
 20
-1656.689141336094
 10
-2953.079881320194
 20
-1656.779719721201
 10
-2951.665211191245
 20
-1657.050725592624
 10
-2950.273413697115
 20
-1657.499976970437
 10
-2948.915694772855
 20
-1658.1238567467
 10
-2947.602985972917
 20
-1658.917341808289
 10
-2946.345856456703
 20
-1659.874043480052
 10
-2945.154427891899
 20
-1660.986258962657
 10
-2944.038292960756
 20
-1662.245033351013
 10
-2943.00643812546
 20
-1663.640231733889
 10
-2942.067171274429
 20
-1665.160620794272
 10
-2941.228054832069
 20
-1666.793959253421
 10
-2940.495844870577
 20
-1668.527096430451
 10
-2939.876436714031
 20
-1670.34607812388
 10
-2939.374817472703
 20
-1672.236258962657
 10
-2938.995025889775
 20
-1674.182420322076
 10
-2938.740119823762
 20
-1676.168892855197
 10
-2938.612151628422
 20
-1678.179682653206
 10
-2938.612151628422
 20
-1680.19860001898
 10
-2938.740119823762
 20
-1682.20938981699
 10
-2938.995025889775
 20
-1684.195862350111
 10
-2939.374817472703
 20
-1686.14202370953
 10
-2939.876436714031
 20
-1688.032204548307
 10
-2940.495844870577
 20
-1689.851186241736
 10
-2941.228054832069
 20
-1691.584323418766
 10
-2942.067171274429
 20
-1693.217661877915
 10
-2943.00643812546
 20
-1694.738050938298
 10
-2944.038292960756
 20
-1696.133249321174
 10
-2945.154427891899
 20
-1697.39202370953
 10
-2946.345856456703
 20
-1698.504239192135
 10
-2947.602985972917
 20
-1699.460940863898
 10
-2948.915694772855
 20
-1700.254425925487
 10
-2950.273413697115
 20
-1700.87830570175
 10
-2951.665211191245
 20
-1701.327557079563
 10
-2953.079881320194
 20
-1701.598562950986
 10
-2954.506033991891
 20
-1701.689141336093
  0
LINE
  5
60
100
AcDbEntity
  8
ARMOUR
  6
CONTINUOUS
 62
     7
100
AcDbLine
 10
-3058.544412957528
 20
-1701.689141336093
 30
0.0
 11
-3058.544412957528
 21
-1656.689141336093
 31
0.0
  0
LINE
  5
61
100
AcDbEntity
  8
ARMOUR
  6
CONTINUOUS
 62
     7
100
AcDbLine
 10
-3131.896153938498
 20
-1656.689141336093
 30
0.0
 11
-3131.896153938498
 21
-1701.689141336093
 31
0.0
  0
LINE
  5
62
100
AcDbEntity
  8
ARMOUR
  6
CONTINUOUS
 62
     7
100
AcDbLine
 10
-3076.128400355978
 20
-1701.689141336093
 30
0.0
 11
-3076.128400355978
 21
-1656.689141336093
 31
0.0
  0
LINE
  5
63
100
AcDbEntity
  8
ARMOUR
  6
CONTINUOUS
 62
     7
100
AcDbLine
 10
-3070.471546106484
 20
-1701.689141336093
 30
0.0
 11
-3070.471546106484
 21
-1656.689141336093
 31
0.0
  0
LINE
  5
64
100
AcDbEntity
  8
ARMOUR
  6
CONTINUOUS
 62
     7
100
AcDbLine
 10
-2954.506033991891
 20
-1701.689141336093
 30
0.0
 11
-2956.627354335452
 21
-1701.689141336093
 31
0.0
  0
LWPOLYLINE
  5
65
100
AcDbEntity
  8
ARMOUR
  6
CONTINUOUS
 62
     7
100
AcDbPolyline
 90
       36
 70
     1
 43
0.0
 10
-2993.750460347744
 20
-1809.092951903759
 10
-2993.992167517243
 20
-1813.000035901265
 10
-2994.709944875698
 20
-1816.788405128587
 10
-2995.881983121286
 20
-1820.34295190376
 10
-2997.472670464999
 20
-1823.555673121706
 10
-2999.433674676819
 20
-1826.328951873936
 10
-3001.705411636094
 20
-1828.578523488909
 10
-3004.218855764862
 20
-1830.236035871443
 10
-3006.897637335141
 20
-1831.251126346534
 10
-3009.66036292444
 20
-1831.592951903759
 10
-3012.423088513743
 20
-1831.251126346534
 10
-3015.101870084023
 20
-1830.236035871443
 10
-3017.61531421279
 20
-1828.578523488909
 10
-3019.887051172062
 20
-1826.328951873936
 10
-3021.848055383886
 20
-1823.555673121706
 10
-3023.438742727596
 20
-1820.34295190376
 10
-3024.610780973189
 20
-1816.788405128587
 10
-3025.328558331644
 20
-1813.000035901265
 10
-3025.57026550114
 20
-1809.092951903759
 10
-3025.328558331644
 20
-1805.185867906254
 10
-3024.610780973189
 20
-1801.397498678931
 10
-3023.438742727596
 20
-1797.84295190376
 10
-3021.848055383886
 20
-1794.630230685813
 10
-3019.887051172062
 20
-1791.856951933583
 10
-3017.61531421279
 20
-1789.60738031861
 10
-3015.101870084023
 20
-1787.949867936077
 10
-3012.423088513743
 20
-1786.934777460985
 10
-3009.66036292444
 20
-1786.59295190376
 10
-3006.897637335141
 20
-1786.934777460985
 10
-3004.218855764862
 20
-1787.949867936077
 10
-3001.705411636094
 20
-1789.60738031861
 10
-2999.433674676819
 20
-1791.856951933583
 10
-2997.472670464999
 20
-1794.630230685813
 10
-2995.881983121286
 20
-1797.842951903759
 10
-2994.709944875698
 20
-1801.397498678931
 10
-2993.992167517243
 20
-1805.185867906254
  0
LWPOLYLINE
  5
66
100
AcDbEntity
  8
ARMOUR
  6
CONTINUOUS
 62
     7
100
AcDbPolyline
 90
       36
 70
     0
 43
0.0
 10
-3007.539042580885
 20
-1786.592951903761
 10
-3006.112889909188
 20
-1786.683530288868
 10
-3004.69821978024
 20
-1786.954536160291
 10
-3003.306422286107
 20
-1787.403787538104
 10
-3001.948703361847
 20
-1788.027667314367
 10
-3000.635994561909
 20
-1788.821152375956
 10
-2999.378865045697
 20
-1789.777854047719
 10
-2998.18743648089
 20
-1790.890069530324
 10
-2997.071301549747
 20
-1792.148843918679
 10
-2996.039446714452
 20
-1793.544042301556
 10
-2995.100179863424
 20
-1795.064431361939
 10
-2994.26106342106
 20
-1796.697769821087
 10
-2993.528853459568
 20
-1798.430906998118
 10
-2992.909445303023
 20
-1800.249888691547
 10
-2992.407826061695
 20
-1802.140069530324
 10
-2992.02803447877
 20
-1804.086230889743
 10
-2991.773128412754
 20
-1806.072703422863
 10
-2991.645160217417
 20
-1808.083493220873
 10
-2991.645160217417
 20
-1810.102410586647
 10
-2991.773128412754
 20
-1812.113200384657
 10
-2992.02803447877
 20
-1814.099672917778
 10
-2992.407826061695
 20
-1816.045834277196
 10
-2992.909445303023
 20
-1817.936015115974
 10
-2993.528853459568
 20
-1819.754996809402
 10
-2994.26106342106
 20
-1821.488133986433
 10
-2995.100179863424
 20
-1823.121472445582
 10
-2996.039446714452
 20
-1824.641861505964
 10
-2997.071301549747
 20
-1826.037059888841
 10
-2998.18743648089
 20
-1827.295834277196
 10
-2999.378865045697
 20
-1828.408049759802
 10
-3000.635994561909
 20
-1829.364751431564
 10
-3001.948703361847
 20
-1830.158236493154
 10
-3003.306422286107
 20
-1830.782116269417
 10
-3004.69821978024
 20
-1831.23136764723
 10
-3006.112889909188
 20
-1831.502373518653
 10
-3007.539042580885
 20
-1831.59295190376
  0
LINE
  5
67
100
AcDbEntity
  8
ARMOUR
  6
CONTINUOUS
 62
     7
100
AcDbLine
 10
-3007.539042580885
 20
-1831.59295190376
 30
0.0
 11
-3009.66036292444
 21
-1831.59295190376
 31
0.0
  0
LINE
  5
68
100
AcDbEntity
  8
ARMOUR
  6
CONTINUOUS
 62
     7
100
AcDbLine
 10
-3007.539042580885
 20
-1786.592951903761
 30
0.0
 11
-3009.66036292444
 21
-1786.59295190376
 31
0.0
  0
LWPOLYLINE
  5
69
100
AcDbEntity
  8
ARMOUR
  6
CONTINUOUS
 62
     7
100
AcDbPolyline
 90
       36
 70
     0
 43
0.0
 10
-3113.605059758863
 20
-1786.592951903761
 10
-3112.178907087169
 20
-1786.683530288868
 10
-3110.76423695822
 20
-1786.954536160291
 10
-3109.372439464087
 20
-1787.403787538104
 10
-3108.014720539826
 20
-1788.027667314367
 10
-3106.702011739892
 20
-1788.821152375956
 10
-3105.444882223678
 20
-1789.777854047719
 10
-3104.253453658873
 20
-1790.890069530324
 10
-3103.137318727728
 20
-1792.148843918679
 10
-3102.105463892435
 20
-1793.544042301556
 10
-3101.166197041401
 20
-1795.064431361939
 10
-3100.327080599041
 20
-1796.697769821087
 10
-3099.594870637548
 20
-1798.430906998118
 10
-3098.975462481003
 20
-1800.249888691547
 10
-3098.473843239675
 20
-1802.140069530324
 10
-3098.094051656747
 20
-1804.086230889743
 10
-3097.839145590735
 20
-1806.072703422863
 10
-3097.711177395394
 20
-1808.083493220873
 10
-3097.711177395394
 20
-1810.102410586647
 10
-3097.839145590735
 20
-1812.113200384657
 10
-3098.094051656747
 20
-1814.099672917778
 10
-3098.473843239675
 20
-1816.045834277196
 10
-3098.975462481003
 20
-1817.936015115974
 10
-3099.594870637548
 20
-1819.754996809402
 10
-3100.327080599041
 20
-1821.488133986433
 10
-3101.166197041401
 20
-1823.121472445582
 10
-3102.105463892435
 20
-1824.641861505964
 10
-3103.137318727728
 20
-1826.037059888841
 10
-3104.253453658873
 20
-1827.295834277196
 10
-3105.444882223678
 20
-1828.408049759802
 10
-3106.702011739892
 20
-1829.364751431564
 10
-3108.014720539826
 20
-1830.158236493154
 10
-3109.372439464087
 20
-1830.782116269417
 10
-3110.76423695822
 20
-1831.23136764723
 10
-3112.178907087169
 20
-1831.502373518653
 10
-3113.605059758863
 20
-1831.59295190376
  0
LINE
  5
6A
100
AcDbEntity
  8
ARMOUR
  6
CONTINUOUS
 62
     7
100
AcDbLine
 10
-3113.605059758863
 20
-1831.59295190376
 30
0.0
 11
-3115.726380102427
 21
-1831.59295190376
 31
0.0
  0
LINE
  5
6B
100
AcDbEntity
  8
ARMOUR
  6
CONTINUOUS
 62
     7
100
AcDbLine
 10
-3113.605059758863
 20
-1786.592951903761
 30
0.0
 11
-3115.726380102427
 21
-1786.59295190376
 31
0.0
  0
LWPOLYLINE
  5
6C
100
AcDbEntity
  8
ARMOUR
  6
CONTINUOUS
 62
     7
100
AcDbPolyline
 90
       36
 70
     0
 43
0.0
 10
-3058.544412957528
 20
-1701.689141336093
 10
-3058.692059229591
 20
-1706.338509397141
 10
-3059.133809284813
 20
-1710.950443480345
 10
-3059.866106411495
 20
-1715.487811004241
 10
-3060.883054583756
 20
-1719.914079753456
 10
-3062.176465932865
 20
-1724.193612014624
 10
-3063.73592667116
 20
-1728.291951510303
 10
-3065.548880937715
 20
-1732.176100820658
 10
-3067.600731890784
 20
-1735.814787059286
 10
-3069.87495923296
 20
-1739.178713664106
 10
-3072.353252222903
 20
-1742.240796276051
 10
-3075.015657102679
 20
-1744.976380806407
 10
-3077.840737753654
 20
-1747.363441937033
 10
-3080.805748287554
 20
-1749.382760455274
 10
-3083.886816182959
 20
-1751.018077995761
 10
-3087.05913449281
 20
-1752.25622794321
 10
-3090.297161575369
 20
-1753.087241442262
 10
-3093.5748267405
 20
-1753.504427660855
 10
-3096.865740155526
 20
-1753.504427660855
 10
-3100.143405320658
 20
-1753.087241442262
 10
-3103.381432403216
 20
-1752.25622794321
 10
-3106.553750713068
 20
-1751.018077995761
 10
-3109.634818608472
 20
-1749.382760455274
 10
-3112.599829142372
 20
-1747.363441937033
 10
-3115.424909793347
 20
-1744.976380806407
 10
-3118.087314673124
 20
-1742.240796276051
 10
-3120.565607663067
 20
-1739.178713664106
 10
-3122.839835005242
 20
-1735.814787059286
 10
-3124.891685958312
 20
-1732.176100820658
 10
-3126.704640224866
 20
-1728.291951510303
 10
-3128.264100963161
 20
-1724.193612014624
 10
-3129.55751231227
 20
-1719.914079753456
 10
-3130.574460484531
 20
-1715.487811004241
 10
-3131.306757611214
 20
-1710.950443480345
 10
-3131.748507666435
 20
-1706.338509397141
 10
-3131.896153938498
 20
-1701.689141336093
  0
LWPOLYLINE
  5
6D
100
AcDbEntity
  8
ARMOUR
  6
CONTINUOUS
 62
     7
100
AcDbPolyline
 90
       36
 70
     0
 43
0.0
 10
-3062.260346727693
 20
-1724.438297260404
 10
-3062.912187997294
 20
-1724.281808570832
 10
-3063.558993061512
 20
-1724.087980788299
 10
-3064.199692940121
 20
-1723.857134253625
 10
-3064.833228742998
 20
-1723.589650488838
 10
-3065.458553420139
 20
-1723.285971566629
 10
-3066.074633492139
 20
-1722.94659937973
 10
-3066.680450758238
 20
-1722.572094811436
 10
-3067.275003979089
 20
-1722.163076808626
 10
-3067.857310531543
 20
-1721.720221358827
 10
-3068.426408032609
 20
-1721.244260373001
 10
-3068.981355930027
 20
-1720.735980475909
 10
-3069.521237056684
 20
-1720.196221706054
 10
-3070.04515914646
 20
-1719.625876127337
 10
-3070.552256308872
 20
-1719.025886354738
 10
-3071.04169046013
 20
-1718.39724399645
 10
-3071.512652708265
 20
-1717.740988015035
 10
-3071.964364689963
 20
-1717.058203010324
 10
-3072.396079856998
 20
-1716.350017426895
 10
-3072.807084710048
 20
-1715.617601689072
 10
-3073.196699977906
 20
-1714.862166266563
 10
-3073.564281740108
 20
-1714.084959673907
 10
-3073.909222491154
 20
-1713.287266407037
 10
-3074.230952144537
 20
-1712.470404820388
 10
-3074.528938974929
 20
-1711.635724948041
 10
-3074.802690496963
 20
-1710.784606272506
 10
-3075.051754279175
 20
-1709.918455444846
 10
-3075.275718691736
 20
-1709.038703959888
 10
-3075.474213586764
 20
-1708.146805790379
 10
-3075.646910910056
 20
-1707.244234983998
 10
-3075.793525243282
 20
-1706.33248322718
 10
-3075.913814275685
 20
-1705.413057379795
 10
-3076.007579204565
 20
-1704.487476984746
 10
-3076.074665063824
 20
-1703.55727175661
 10
-3076.114960980098
 20
-1702.623979053468
 10
-3076.128400355978
 20
-1701.689141336093
  0
LWPOLYLINE
  5
6E
100
AcDbEntity
  8
ARMOUR
  6
CONTINUOUS
 62
     7
100
AcDbPolyline
 90
       36
 70
     0
 43
0.0
 10
-3061.539818525875
 20
-1722.219399925014
 10
-3061.993648410036
 20
-1721.882461142966
 10
-3062.439744970251
 20
-1721.525464520714
 10
-3062.877665102875
 20
-1721.148764659742
 10
-3063.306973825837
 20
-1720.752735732584
 10
-3063.727244710703
 20
-1720.337771111158
 10
-3064.138060306243
 20
-1719.904282976034
 10
-3064.539012553073
 20
-1719.452701907018
 10
-3064.929703188988
 20
-1718.983476455463
 10
-3065.309744144544
 20
-1718.497072698727
 10
-3065.678757928532
 20
-1717.993973777221
 10
-3066.036378002934
 20
-1717.47467941451
 10
-3066.382249146984
 20
-1716.939705420942
 10
-3066.716027810043
 20
-1716.389583181304
 10
-3067.037382452805
 20
-1715.824859126992
 10
-3067.34599387664
 20
-1715.246094193253
 10
-3067.641555540639
 20
-1714.653863262013
 10
-3067.9237738661
 20
-1714.048754590848
 10
-3068.192368528133
 20
-1713.431369228678
 10
-3068.447072734114
 20
-1712.802320418744
 10
-3068.687633488686
 20
-1712.162232989489
 10
-3068.913811845042
 20
-1711.511742733911
 10
-3069.125383142287
 20
-1710.851495778042
 10
-3069.322137228581
 20
-1710.182147939157
 10
-3069.50387866989
 20
-1709.504364074351
 10
-3069.670426944097
 20
-1708.81881742015
 10
-3069.821616620322
 20
-1708.126188923786
 10
-3069.957297523244
 20
-1707.427166566823
 10
-3070.077334882256
 20
-1706.722444681784
 10
-3070.181609465346
 20
-1706.012723262485
 10
-3070.270017697521
 20
-1705.298707268732
 10
-3070.342471763696
 20
-1704.581105926092
 10
-3070.398899695907
 20
-1703.860632021427
 10
-3070.439245444803
 20
-1703.13800119489
 10
-3070.46346893532
 20
-1702.413931229084
 10
-3070.471546106484
 20
-1701.689141336093
  0
LINE
  5
6F
100
AcDbEntity
  8
ARMOUR
  6
CONTINUOUS
 62
     7
100
AcDbLine
 10
-3088.385738144591
 20
-1851.500098639299
 30
0.0
 11
-3104.948436788237
 21
-1842.346944010113
 31
0.0
  0
LINE
  5
70
100
AcDbEntity
  8
ARMOUR
  6
CONTINUOUS
 62
     7
100
AcDbLine
 10
-3033.701993484787
 20
-1864.189141336093
 30
0.0
 11
-3040.773061296651
 21
-1864.189141336094
 31
0.0
  0
LINE
  5
71
100
AcDbEntity
  8
ARMOUR
  6
CONTINUOUS
 62
     7
100
AcDbLine
 10
-2954.506033991891
 20
-1656.689141336094
 30
0.0
 11
-2956.627354335452
 21
-1656.689141336094
 31
0.0
  0
LWPOLYLINE
  5
72
100
AcDbEntity
  8
ARMOUR
  6
CONTINUOUS
 62
     7
100
AcDbPolyline
 90
       36
 70
     1
 43
0.0
 10
-2993.750460347744
 20
-1549.285330768427
 10
-2993.992167517243
 20
-1553.192414765933
 10
-2994.709944875698
 20
-1556.980783993255
 10
-2995.881983121286
 20
-1560.535330768428
 10
-2997.472670464999
 20
-1563.748051986375
 10
-2999.433674676819
 20
-1566.521330738605
 10
-3001.705411636094
 20
-1568.770902353578
 10
-3004.218855764862
 20
-1570.42841473611
 10
-3006.897637335141
 20
-1571.443505211202
 10
-3009.66036292444
 20
-1571.785330768428
 10
-3012.423088513743
 20
-1571.443505211202
 10
-3015.101870084023
 20
-1570.42841473611
 10
-3017.61531421279
 20
-1568.770902353578
 10
-3019.887051172062
 20
-1566.521330738605
 10
-3021.848055383886
 20
-1563.748051986375
 10
-3023.438742727596
 20
-1560.535330768428
 10
-3024.610780973189
 20
-1556.980783993255
 10
-3025.328558331644
 20
-1553.192414765933
 10
-3025.57026550114
 20
-1549.285330768427
 10
-3025.328558331644
 20
-1545.378246770921
 10
-3024.610780973189
 20
-1541.589877543599
 10
-3023.438742727596
 20
-1538.035330768427
 10
-3021.848055383886
 20
-1534.82260955048
 10
-3019.887051172062
 20
-1532.049330798251
 10
-3017.61531421279
 20
-1529.799759183277
 10
-3015.101870084023
 20
-1528.142246800744
 10
-3012.423088513743
 20
-1527.127156325652
 10
-3009.66036292444
 20
-1526.785330768427
 10
-3006.897637335141
 20
-1527.127156325652
 10
-3004.218855764862
 20
-1528.142246800744
 10
-3001.705411636094
 20
-1529.799759183277
 10
-2999.433674676819
 20
-1532.049330798251
 10
-2997.472670464999
 20
-1534.82260955048
 10
-2995.881983121286
 20
-1538.035330768427
 10
-2994.709944875698
 20
-1541.589877543599
 10
-2993.992167517243
 20
-1545.378246770921
  0
LWPOLYLINE
  5
73
100
AcDbEntity
  8
ARMOUR
  6
CONTINUOUS
 62
     7
100
AcDbPolyline
 90
       36
 70
     0
 43
0.0
 10
-3007.539042580885
 20
-1526.785330768427
 10
-3006.112889909188
 20
-1526.875909153534
 10
-3004.69821978024
 20
-1527.146915024957
 10
-3003.306422286107
 20
-1527.59616640277
 10
-3001.948703361847
 20
-1528.220046179033
 10
-3000.635994561909
 20
-1529.013531240623
 10
-2999.378865045697
 20
-1529.970232912385
 10
-2998.18743648089
 20
-1531.082448394991
 10
-2997.071301549747
 20
-1532.341222783346
 10
-2996.039446714452
 20
-1533.736421166222
 10
-2995.100179863424
 20
-1535.256810226605
 10
-2994.26106342106
 20
-1536.890148685755
 10
-2993.528853459568
 20
-1538.623285862785
 10
-2992.909445303023
 20
-1540.442267556215
 10
-2992.407826061695
 20
-1542.332448394991
 10
-2992.02803447877
 20
-1544.278609754411
 10
-2991.773128412754
 20
-1546.26508228753
 10
-2991.645160217417
 20
-1548.27587208554
 10
-2991.645160217417
 20
-1550.294789451314
 10
-2991.773128412754
 20
-1552.305579249325
 10
-2992.02803447877
 20
-1554.292051782445
 10
-2992.407826061695
 20
-1556.238213141864
 10
-2992.909445303023
 20
-1558.128393980641
 10
-2993.528853459568
 20
-1559.94737567407
 10
-2994.26106342106
 20
-1561.6805128511
 10
-2995.100179863424
 20
-1563.313851310249
 10
-2996.039446714452
 20
-1564.834240370632
 10
-2997.071301549747
 20
-1566.229438753509
 10
-2998.18743648089
 20
-1567.488213141864
 10
-2999.378865045697
 20
-1568.60042862447
 10
-3000.635994561909
 20
-1569.557130296233
 10
-3001.948703361847
 20
-1570.350615357822
 10
-3003.306422286107
 20
-1570.974495134085
 10
-3004.69821978024
 20
-1571.423746511897
 10
-3006.112889909188
 20
-1571.694752383321
 10
-3007.539042580885
 20
-1571.785330768428
  0
LINE
  5
74
100
AcDbEntity
  8
ARMOUR
  6
CONTINUOUS
 62
     7
100
AcDbLine
 10
-3007.539042580885
 20
-1526.785330768427
 30
0.0
 11
-3009.66036292444
 21
-1526.785330768427
 31
0.0
  0
LINE
  5
75
100
AcDbEntity
  8
ARMOUR
  6
CONTINUOUS
 62
     7
100
AcDbLine
 10
-3007.539042580885
 20
-1571.785330768427
 30
0.0
 11
-3009.66036292444
 21
-1571.785330768427
 31
0.0
  0
LWPOLYLINE
  5
76
100
AcDbEntity
  8
ARMOUR
  6
CONTINUOUS
 62
     7
100
AcDbPolyline
 90
       36
 70
     0
 43
0.0
 10
-3113.605059758863
 20
-1526.785330768427
 10
-3112.178907087169
 20
-1526.875909153534
 10
-3110.76423695822
 20
-1527.146915024957
 10
-3109.372439464087
 20
-1527.59616640277
 10
-3108.014720539824
 20
-1528.220046179033
 10
-3106.702011739892
 20
-1529.013531240623
 10
-3105.444882223678
 20
-1529.970232912385
 10
-3104.253453658873
 20
-1531.082448394991
 10
-3103.137318727728
 20
-1532.341222783346
 10
-3102.105463892435
 20
-1533.736421166222
 10
-3101.166197041401
 20
-1535.256810226605
 10
-3100.327080599041
 20
-1536.890148685755
 10
-3099.594870637548
 20
-1538.623285862785
 10
-3098.975462481003
 20
-1540.442267556215
 10
-3098.473843239675
 20
-1542.332448394991
 10
-3098.094051656747
 20
-1544.278609754411
 10
-3097.839145590735
 20
-1546.26508228753
 10
-3097.711177395394
 20
-1548.27587208554
 10
-3097.711177395394
 20
-1550.294789451314
 10
-3097.839145590735
 20
-1552.305579249325
 10
-3098.094051656747
 20
-1554.292051782445
 10
-3098.473843239675
 20
-1556.238213141864
 10
-3098.975462481003
 20
-1558.128393980641
 10
-3099.594870637548
 20
-1559.94737567407
 10
-3100.327080599041
 20
-1561.6805128511
 10
-3101.166197041401
 20
-1563.313851310249
 10
-3102.105463892435
 20
-1564.834240370632
 10
-3103.137318727728
 20
-1566.229438753509
 10
-3104.253453658873
 20
-1567.488213141864
 10
-3105.444882223678
 20
-1568.60042862447
 10
-3106.702011739892
 20
-1569.557130296233
 10
-3108.014720539824
 20
-1570.350615357822
 10
-3109.372439464087
 20
-1570.974495134085
 10
-3110.76423695822
 20
-1571.423746511897
 10
-3112.178907087169
 20
-1571.694752383321
 10
-3113.605059758863
 20
-1571.785330768428
  0
LINE
  5
77
100
AcDbEntity
  8
ARMOUR
  6
CONTINUOUS
 62
     7
100
AcDbLine
 10
-3113.605059758863
 20
-1526.785330768427
 30
0.0
 11
-3115.726380102427
 21
-1526.785330768427
 31
0.0
  0
LINE
  5
78
100
AcDbEntity
  8
ARMOUR
  6
CONTINUOUS
 62
     7
100
AcDbLine
 10
-3113.605059758863
 20
-1571.785330768427
 30
0.0
 11
-3115.726380102427
 21
-1571.785330768427
 31
0.0
  0
LWPOLYLINE
  5
79
100
AcDbEntity
  8
ARMOUR
  6
CONTINUOUS
 62
     7
100
AcDbPolyline
 90
       36
 70
     0
 43
0.0
 10
-3131.896153938498
 20
-1656.689141336093
 10
-3131.748507666435
 20
-1652.039773275045
 10
-3131.306757611214
 20
-1647.427839191842
 10
-3130.574460484531
 20
-1642.890471667945
 10
-3129.55751231227
 20
-1638.464202918731
 10
-3128.264100963161
 20
-1634.184670657562
 10
-3126.704640224866
 20
-1630.086331161883
 10
-3124.891685958312
 20
-1626.202181851527
 10
-3122.839835005242
 20
-1622.5634956129
 10
-3120.565607663067
 20
-1619.199569008081
 10
-3118.087314673121
 20
-1616.137486396135
 10
-3115.424909793347
 20
-1613.401901865779
 10
-3112.599829142372
 20
-1611.014840735153
 10
-3109.634818608472
 20
-1608.995522216913
 10
-3106.553750713068
 20
-1607.360204676426
 10
-3103.381432403216
 20
-1606.122054728977
 10
-3100.143405320658
 20
-1605.291041229924
 10
-3096.865740155526
 20
-1604.873855011332
 10
-3093.5748267405
 20
-1604.873855011332
 10
-3090.297161575369
 20
-1605.291041229924
 10
-3087.05913449281
 20
-1606.122054728977
 10
-3083.886816182959
 20
-1607.360204676426
 10
-3080.805748287554
 20
-1608.995522216913
 10
-3077.840737753654
 20
-1611.014840735154
 10
-3075.015657102679
 20
-1613.401901865779
 10
-3072.353252222903
 20
-1616.137486396136
 10
-3069.87495923296
 20
-1619.199569008081
 10
-3067.600731890784
 20
-1622.563495612901
 10
-3065.548880937715
 20
-1626.202181851528
 10
-3063.73592667116
 20
-1630.086331161884
 10
-3062.176465932865
 20
-1634.184670657563
 10
-3060.883054583756
 20
-1638.464202918731
 10
-3059.866106411495
 20
-1642.890471667946
 10
-3059.133809284813
 20
-1647.427839191842
 10
-3058.692059229591
 20
-1652.039773275046
 10
-3058.544412957528
 20
-1656.689141336093
  0
LWPOLYLINE
  5
7A
100
AcDbEntity
  8
ARMOUR
  6
CONTINUOUS
 62
     7
100
AcDbPolyline
 90
       36
 70
     0
 43
0.0
 10
-3076.128400355978
 20
-1656.689141336093
 10
-3076.114960980098
 20
-1655.754303618722
 10
-3076.074665063827
 20
-1654.821010915584
 10
-3076.007579204565
 20
-1653.890805687453
 10
-3075.913814275688
 20
-1652.965225292408
 10
-3075.793525243282
 20
-1652.045799445026
 10
-3075.646910910059
 20
-1651.134047688213
 10
-3075.474213586769
 20
-1650.231476881836
 10
-3075.275718691745
 20
-1649.33957871233
 10
-3075.051754279184
 20
-1648.459827227375
 10
-3074.802690496975
 20
-1647.593676399718
 10
-3074.528938974943
 20
-1646.742557724188
 10
-3074.230952144555
 20
-1645.907877851843
 10
-3073.909222491174
 20
-1645.091016265197
 10
-3073.564281740128
 20
-1644.293322998329
 10
-3073.196699977931
 20
-1643.516116405674
 10
-3072.807084710077
 20
-1642.760680983168
 10
-3072.396079857027
 20
-1642.028265245346
 10
-3071.964364689998
 20
-1641.320079661918
 10
-3071.512652708303
 20
-1640.637294657209
 10
-3071.041690460174
 20
-1639.981038675794
 10
-3070.552256308918
 20
-1639.352396317506
 10
-3070.045159146509
 20
-1638.752406544907
 10
-3069.521237056735
 20
-1638.18206096619
 10
-3068.981355930085
 20
-1637.642302196334
 10
-3068.426408032673
 20
-1637.134022299241
 10
-3067.857310531609
 20
-1636.658061313413
 10
-3067.275003979159
 20
-1636.215205863612
 10
-3066.680450758313
 20
-1635.806187860799
 10
-3066.07463349222
 20
-1635.431683292503
 10
-3065.45855342022
 20
-1635.0923111056
 10
-3064.833228743084
 20
-1634.788632183387
 10
-3064.199692940213
 20
-1634.521148418598
 10
-3063.558993061607
 20
-1634.29030188392
 10
-3062.912187997392
 20
-1634.096474101381
 10
-3062.260346727794
 20
-1633.939985411804
  0
LWPOLYLINE
  5
7B
100
AcDbEntity
  8
ARMOUR
  6
CONTINUOUS
 62
     7
100
AcDbPolyline
 90
       36
 70
     0
 43
0.0
 10
-3070.471546106484
 20
-1656.689141336093
 10
-3070.46354254995
 20
-1655.967661022202
 10
-3070.439539757748
 20
-1655.246890816728
 10
-3070.399561354347
 20
-1654.52754012917
 10
-3070.343646688011
 20
-1653.810316971886
 10
-3070.271850792086
 20
-1653.095927263238
 10
-3070.184244330825
 20
-1652.385074132797
 10
-3070.08091352985
 20
-1651.6784572293
 10
-3069.961960091274
 20
-1650.97677203203
 10
-3069.827501093598
 20
-1650.280709166295
 10
-3069.677668876498
 20
-1649.59095372369
 10
-3069.512610910542
 20
-1648.908184587805
 10
-3069.33248965208
 20
-1648.233073766038
 10
-3069.137482383309
 20
-1647.566285728188
 10
-3068.927781037821
 20
-1646.908476752446
 10
-3068.703592011663
 20
-1646.260294279472
 10
-3068.465135960225
 20
-1645.622376275156
 10
-3068.212647581034
 20
-1644.995350602703
 10
-3067.946375382777
 20
-1644.379834404674
 10
-3067.666581440695
 20
-1643.776433495564
 10
-3067.373541138646
 20
-1643.18574176554
 10
-3067.067542898067
 20
-1642.608340595912
 10
-3066.748887894079
 20
-1642.04479828691
 10
-3066.417889759084
 20
-1641.495669498349
 10
-3066.074874274056
 20
-1640.961494703708
 10
-3065.72017904791
 20
-1640.442799658173
 10
-3065.354153185197
 20
-1639.940094881173
 10
-3064.977156942525
 20
-1639.453875153904
 10
-3064.589561373953
 20
-1638.984619032349
 10
-3064.191747965815
 20
-1638.532788376263
 10
-3063.784108261225
 20
-1638.098827894595
 10
-3063.367043474711
 20
-1637.683164707788
 10
-3062.940964097329
 20
-1637.286207927387
 10
-3062.506289492638
 20
-1636.908348253381
 10
-3062.063447483946
 20
-1636.549957589661
 10
-3061.612873933232
 20
-1636.211388677973
  0
LINE
  5
7C
100
AcDbEntity
  8
ARMOUR
  6
CONTINUOUS
 62
     7
100
AcDbLine
 10
-3088.385738144591
 20
-1506.878184032887
 30
0.0
 11
-3104.948436788237
 21
-1516.031338662075
 31
0.0
  0
LINE
  5
7D
100
AcDbEntity
  8
ARMOUR
  6
CONTINUOUS
 62
     7
100
AcDbLine
 10
-3040.773061341495
 20
-1494.189141336094
 30
0.0
 11
-3033.701993484787
 21
-1494.189141336094
 31
0.0
  0
LWPOLYLINE
  5
7E
100
AcDbEntity
  8
ARMOUR
  6
CONTINUOUS
 62
     7
100
AcDbPolyline
 90
       36
 70
     1
 43
0.0
 10
-3152.849486114719
 20
-1679.189141336093
 10
-3153.091193284218
 20
-1683.096225333599
 10
-3153.808970642673
 20
-1686.884594560922
 10
-3154.98100888826
 20
-1690.439141336094
 10
-3156.571696231973
 20
-1693.65186255404
 10
-3158.532700443794
 20
-1696.425141306271
 10
-3160.804437403069
 20
-1698.674712921243
 10
-3163.317881531837
 20
-1700.332225303776
 10
-3165.996663102115
 20
-1701.347315778868
 10
-3168.759388691416
 20
-1701.689141336093
 10
-3171.522114280719
 20
-1701.347315778868
 10
-3174.200895850997
 20
-1700.332225303776
 10
-3176.714339979765
 20
-1698.674712921243
 10
-3178.986076939037
 20
-1696.425141306271
 10
-3180.947081150861
 20
-1693.65186255404
 10
-3182.537768494571
 20
-1690.439141336094
 10
-3183.709806740164
 20
-1686.884594560922
 10
-3184.427584098619
 20
-1683.096225333599
 10
-3184.669291268114
 20
-1679.189141336093
 10
-3184.427584098619
 20
-1675.282057338588
 10
-3183.709806740164
 20
-1671.493688111266
 10
-3182.537768494571
 20
-1667.939141336094
 10
-3180.947081150861
 20
-1664.726420118147
 10
-3178.986076939037
 20
-1661.953141365917
 10
-3176.714339979765
 20
-1659.703569750944
 10
-3174.200895850997
 20
-1658.046057368411
 10
-3171.522114280719
 20
-1657.030966893319
 10
-3168.759388691416
 20
-1656.689141336094
 10
-3165.996663102115
 20
-1657.030966893319
 10
-3163.317881531837
 20
-1658.046057368411
 10
-3160.804437403069
 20
-1659.703569750944
 10
-3158.532700443794
 20
-1661.953141365917
 10
-3156.571696231973
 20
-1664.726420118147
 10
-3154.98100888826
 20
-1667.939141336093
 10
-3153.808970642673
 20
-1671.493688111266
 10
-3153.091193284218
 20
-1675.282057338588
  0
LWPOLYLINE
  5
7F
100
AcDbEntity
  8
ARMOUR
  6
CONTINUOUS
 62
     7
100
AcDbPolyline
 90
       36
 70
     0
 43
0.0
 10
-3166.63806834786
 20
-1656.689141336094
 10
-3165.211915676163
 20
-1656.779719721201
 10
-3163.797245547214
 20
-1657.050725592624
 10
-3162.405448053082
 20
-1657.499976970437
 10
-3161.047729128821
 20
-1658.1238567467
 10
-3159.735020328883
 20
-1658.917341808289
 10
-3158.477890812672
 20
-1659.874043480052
 10
-3157.286462247865
 20
-1660.986258962657
 10
-3156.170327316722
 20
-1662.245033351013
 10
-3155.138472481427
 20
-1663.640231733889
 10
-3154.199205630399
 20
-1665.160620794272
 10
-3153.360089188035
 20
-1666.793959253421
 10
-3152.627879226542
 20
-1668.527096430451
 10
-3152.008471069997
 20
-1670.34607812388
 10
-3151.50685182867
 20
-1672.236258962657
 10
-3151.127060245744
 20
-1674.182420322076
 10
-3150.872154179729
 20
-1676.168892855197
 10
-3150.744185984391
 20
-1678.179682653206
 10
-3150.744185984391
 20
-1680.19860001898
 10
-3150.872154179729
 20
-1682.20938981699
 10
-3151.127060245744
 20
-1684.195862350111
 10
-3151.50685182867
 20
-1686.14202370953
 10
-3152.008471069997
 20
-1688.032204548307
 10
-3152.627879226542
 20
-1689.851186241736
 10
-3153.360089188035
 20
-1691.584323418766
 10
-3154.199205630399
 20
-1693.217661877915
 10
-3155.138472481427
 20
-1694.738050938298
 10
-3156.170327316722
 20
-1696.133249321174
 10
-3157.286462247865
 20
-1697.39202370953
 10
-3158.477890812672
 20
-1698.504239192135
 10
-3159.735020328883
 20
-1699.460940863898
 10
-3161.047729128821
 20
-1700.254425925487
 10
-3162.405448053082
 20
-1700.87830570175
 10
-3163.797245547214
 20
-1701.327557079563
 10
-3165.211915676163
 20
-1701.598562950986
 10
-3166.63806834786
 20
-1701.689141336093
  0
LINE
  5
80
100
AcDbEntity
  8
ARMOUR
  6
CONTINUOUS
 62
     7
100
AcDbLine
 10
-3166.63806834786
 20
-1701.689141336093
 30
0.0
 11
-3168.759388691416
 21
-1701.689141336093
 31
0.0
  0
LINE
  5
81
100
AcDbEntity
  8
ARMOUR
  6
CONTINUOUS
 62
     7
100
AcDbLine
 10
-3166.63806834786
 20
-1656.689141336094
 30
0.0
 11
-3168.759388691416
 21
-1656.689141336094
 31
0.0
  0
LWPOLYLINE
  5
82
100
AcDbEntity
  8
ARMOUR
  6
CONTINUOUS
100
AcDbPolyline
 90
        4
 70
     1
 43
0.0
 10
-2256.458119678996
 20
-2770.444545897372
 10
-2256.458119678996
 20
-2758.444576414951
 10
-2170.458134937785
 20
-2758.444576414951
 10
-2170.458134937785
 20
-2770.444545897372
  0
LINE
  5
83
100
AcDbEntity
  8
ARMOUR
  6
CONTINUOUS
100
AcDbLine
 10
-2243.458127308391
 20
-2820.444545897373
 30
0.0
 11
-2243.458127308391
 21
-2770.444545897372
 31
0.0
  0
ARC
  5
84
100
AcDbEntity
  8
ARMOUR
  6
CONTINUOUS
100
AcDbCircle
 10
-2253.458165455363
 20
-2820.444545897373
 30
0.0
 40
10.0
100
AcDbArc
 50
310.761413514683
 51
0.0000006832453803
  0
ARC
  5
85
100
AcDbEntity
  8
ARMOUR
  6
CONTINUOUS
100
AcDbCircle
 10
-2270.070256519816
 20
-2846.41805663956
 30
0.0
 40
18.6426043510437
100
AcDbArc
 50
90.00000000000005
 51
144.799140845968
  0
LINE
  5
86
100
AcDbEntity
  8
ARMOUR
  6
CONTINUOUS
100
AcDbLine
 10
-2183.45812730839
 20
-2820.444545897373
 30
0.0
 11
-2183.45812730839
 21
-2770.444545897372
 31
0.0
  0
ARC
  5
87
100
AcDbEntity
  8
ARMOUR
  6
CONTINUOUS
100
AcDbCircle
 10
-2173.458127308391
 20
-2820.444545897373
 30
0.0
 40
10.0
100
AcDbArc
 50
180.0000025044782
 51
235.9797470741663
  0
ARC
  5
88
100
AcDbEntity
  8
ARMOUR
  6
CONTINUOUS
100
AcDbCircle
 10
-2157.88481645634
 20
-2854.382648619541
 30
0.0
 40
25.42701721191406
100
AcDbArc
 50
47.17058382873405
 51
88.79455322747238
  0
LINE
  5
89
100
AcDbEntity
  8
ARMOUR
100
AcDbLine
 10
-2270.070256519816
 20
-2827.775452288517
 30
0.0
 11
-2157.88481645634
 21
-2828.955631407627
 31
0.0
  0
LINE
  5
8A
100
AcDbEntity
  8
BIN
100
AcDbLine
 10
-3180.799023249116
 20
-1869.18914133609
 30
0.0
 11
-3180.799023249116
 21
-1259.189141336092
 31
0.0
  0
ARC
  5
8B
100
AcDbEntity
  8
BIN
100
AcDbCircle
 10
-2213.45812730839
 20
-3988.444576414951
 30
0.0
 40
1559.999999999999
100
AcDbArc
 50
63.33854141848596
 51
116.661458581514
  0
LINE
  5
8C
100
AcDbEntity
  8
BIN
100
AcDbLine
 10
-1513.45812730839
 20
-2594.314022987475
 30
0.0
 11
-1513.45812730839
 21
-3026.103680474224
 31
0.0
  0
LINE
  5
8D
100
AcDbEntity
  8
BIN
100
AcDbLine
 10
-2913.45812730839
 20
-2594.314022987474
 30
0.0
 11
-2913.45812730839
 21
-3026.103680474224
 31
0.0
  0
ARC
  5
8E
100
AcDbEntity
  8
BIN
100
AcDbCircle
 10
-2213.45812730839
 20
-3988.444576414951
 30
0.0
 40
1190.0
100
AcDbArc
 50
53.96812092752943
 51
126.0318790724705
  0
LINE
  5
8F
100
AcDbEntity
  8
BIN
100
AcDbLine
 10
-3180.799023249116
 20
-1869.189141336092
 30
0.0
 11
-3778.458127308391
 21
-1869.18914133609
 31
0.0
  0
LINE
  5
90
100
AcDbEntity
  8
BIN
100
AcDbLine
 10
-3180.799023249116
 20
-1259.189141336092
 30
0.0
 11
-3778.458127308389
 21
-1279.18914133609
 31
0.0
  0
LINE
  5
91
100
AcDbEntity
  8
BIN
  6
CONTINUOUS
100
AcDbLine
 10
-2321.458127308385
 20
-2720.934809036271
 30
0.0
 11
-2321.45812730839
 21
-2440.206868567736
 31
0.0
  0
TEXT
  5
93
100
AcDbEntity
  8
COMMENTS
100
AcDbText
 10
-1617.809613007175
 20
-2365.752979601581
 30
0.0
 40
24.75288659096885
  1
Latch positions could 
 41
0.6
  7
ARIAL
 11
-1617.809613007175
 21
-2365.752979601581
 31
0.0
100
AcDbText
 73
     1
  0
TEXT
  5
94
100
AcDbEntity
  8
COMMENTS
100
AcDbText
 10
-1617.809613007175
 20
-2402.882309488034
 30
-37.12932988645328
 40
24.75288659096885
  1
vary slightly. Typical
 41
0.6
  7
ARIAL
 11
-1617.809613007175
 21
-2402.882309488034
 31
-37.12932988645328
100
AcDbText
 73
     1
  0
TEXT
  5
95
100
AcDbEntity
  8
COMMENTS
100
AcDbText
 10
-1617.809613007175
 20
-2440.011639374487
 30
-74.25865977290657
 40
24.75288659096885
  1
positions are marked.
 41
0.6
  7
ARIAL
 11
-1617.809613007175
 21
-2440.011639374487
 31
-74.25865977290657
100
AcDbText
 73
     1
  0
LINE
  5
96
100
AcDbEntity
  8
BIN
100
AcDbLine
 10
-2913.458127308388
 20
-1259.189141336091
 30
0.0
 11
-2913.458127308389
 21
-1869.189141336093
 31
0.0
  0
LINE
  5
97
100
AcDbEntity
  8
BIN
100
AcDbLine
 10
-1513.458127308389
 20
-1259.189141336106
 30
0.0
 11
-1513.45812730839
 21
-1869.189141336094
 31
0.0
  0
ARC
  5
98
100
AcDbEntity
  8
BIN
100
AcDbCircle
 10
-2213.458127308383
 20
42862.66167322152
 30
0.0
 40
44141.85081455761
100
AcDbArc
 50
269.091367351016
 51
270.9086326489838
  0
LINE
  5
99
100
AcDbEntity
  8
BIN
100
AcDbLine
 10
-2321.458127308387
 20
-2648.444576414947
 30
0.0
 11
-2105.458127308392
 21
-2648.444576414958
 31
0.0
  0
LINE
  5
9A
100
AcDbEntity
  8
BIN
100
AcDbLine
 10
-3273.620748579212
 20
-1257.295317572667
 30
0.0
 11
-3273.620748579223
 21
-1247.28971997882
 31
0.0
  0
LINE
  5
9B
100
AcDbEntity
  8
BIN
100
AcDbLine
 10
-2321.458127308388
 20
-1272.161723914565
 30
0.0
 11
-2105.458127308391
 21
-1272.161723914564
 31
0.0
  0
LINE
  5
9C
100
AcDbEntity
  8
BIN
100
AcDbLine
 10
-2905.45812730839
 20
-2599.257763923557
 30
0.0
 11
-2905.458127308392
 21
-2932.765485379215
 31
0.0
  0
ARC
  5
9D
100
AcDbEntity
  8
BIN
100
AcDbCircle
 10
-2213.45812730839
 20
-3988.444576414951
 30
0.0
 40
1551.999999999999
100
AcDbArc
 50
93.99030233526854
 51
116.4794170996808
  0
ARC
  5
9E
100
AcDbEntity
  8
BIN
100
AcDbCircle
 10
-2213.45812730839
 20
-3988.444576414949
 30
0.0
 40
1551.999999999999
100
AcDbArc
 50
63.5205829003191
 51
86.00969766473145
  0
LINE
  5
9F
100
AcDbEntity
  8
BIN
  6
CONTINUOUS
100
AcDbLine
 10
-2323.45812730839
 20
-2803.539516927061
 30
0.0
 11
-2323.458127308393
 21
-2720.934809036284
 31
0.0
  0
LINE
  5
A0
100
AcDbEntity
  8
BIN
100
AcDbLine
 10
-3273.620748579211
 20
-1247.289719978819
 30
0.0
 11
-3770.458127308344
 21
-1263.915832602372
 31
0.0
  0
LINE
  5
A1
100
AcDbEntity
  8
BIN
100
AcDbLine
 10
-3612.588680735864
 20
-1869.18914133609
 30
0.0
 11
-3612.588680735866
 21
-1273.638504009697
 31
0.0
  0
LINE
  5
A2
100
AcDbEntity
  8
BIN
100
AcDbLine
 10
-3604.58868073586
 20
-1268.370792869829
 30
0.0
 11
-3604.58868073585
 21
-1258.36519527598
 31
0.0
  0
LINE
  5
A3
100
AcDbEntity
  8
BIN
100
AcDbLine
 10
-3778.458127308389
 20
-1869.18914133609
 30
0.0
 11
-3778.458127308391
 21
-1279.18914133609
 31
0.0
  0
LINE
  5
A4
100
AcDbEntity
  8
BIN
100
AcDbLine
 10
-3770.458127308435
 20
-1273.921430196224
 30
0.0
 11
-3770.458127308344
 21
-1263.915832602373
 31
0.0
  0
LINE
  5
A5
100
AcDbEntity
  8
BIN
  6
CONTINUOUS
100
AcDbLine
 10
-2105.458127308393
 20
-2720.934809036259
 30
0.0
 11
-2105.45812730839
 21
-2440.206868567734
 31
0.0
  0
LINE
  5
A6
100
AcDbEntity
  8
BIN
  6
CONTINUOUS
100
AcDbLine
 10
-2103.45812730839
 20
-2803.53951692706
 30
0.0
 11
-2103.45812730839
 21
-2720.934809036261
 31
0.0
  0
LINE
  5
A7
100
AcDbEntity
  8
BIN
100
AcDbLine
 10
-1521.45812730839
 20
-2599.257763923556
 30
0.0
 11
-1521.45812730839
 21
-2932.765485379194
 31
0.0
  0
LINE
  5
A8
100
AcDbEntity
  8
BIN
100
AcDbLine
 10
-2782.670214742457
 20
-2937.155968819496
 30
0.0
 11
-2819.992015181352
 21
-2834.615164860407
 31
0.0
  0
LINE
  5
A9
100
AcDbEntity
  8
BIN
100
AcDbLine
 10
-2835.396488441949
 20
-2967.719986427974
 30
0.0
 11
-2876.373572428359
 21
-2855.136373460057
 31
0.0
  0
LINE
  5
AA
100
AcDbEntity
  8
BIN
100
AcDbLine
 10
-2354.377817911894
 20
-2798.16767796218
 30
0.0
 11
-2397.130335827985
 21
-2680.70610036276
 31
0.0
  0
LINE
  5
AB
100
AcDbEntity
  8
BIN
100
AcDbLine
 10
-2415.011881773709
 20
-2807.005220661883
 30
0.0
 11
-2453.511893075103
 21
-2701.227308962449
 31
0.0
  0
LINE
  5
AC
100
AcDbEntity
  8
BIN
100
AcDbLine
 10
-2415.011881773704
 20
-2807.005220661883
 30
0.0
 11
-2354.377817911907
 21
-2798.167677962177
 31
0.0
  0
LINE
  5
AD
100
AcDbEntity
  8
BIN
100
AcDbLine
 10
-2425.808261465364
 20
-2777.342411247156
 30
0.0
 11
-2369.426704218255
 21
-2756.8212026476
 31
0.0
  0
LINE
  5
AE
100
AcDbEntity
  8
AXES
100
AcDbLine
 10
-2397.617482841832
 20
-2767.081806947371
 30
0.0
 11
-2401.721724561741
 21
-2755.80549549794
 31
0.0
  0
LINE
  5
AF
100
AcDbEntity
  8
BIN
100
AcDbLine
 10
-2397.617482841832
 20
-2767.081806947371
 30
0.0
 11
-2401.721724561741
 21
-2755.80549549794
 31
0.0
  0
LINE
  5
B0
100
AcDbEntity
  8
BIN
100
AcDbLine
 10
-2383.522093530042
 20
-2761.951504797491
 30
0.0
 11
-2387.626335249949
 21
-2750.675193348061
 31
0.0
  0
LINE
  5
B1
100
AcDbEntity
  8
BIN
100
AcDbLine
 10
-2411.712872153619
 20
-2772.212109097261
 30
0.0
 11
-2415.817113873526
 21
-2760.935797647831
 31
0.0
  0
LINE
  5
B2
100
AcDbEntity
  8
BIN
100
AcDbLine
 10
-2429.912503185244
 20
-2766.066099797795
 30
0.0
 11
-2373.530945938163
 21
-2745.544891198169
 31
0.0
  0
LINE
  5
B3
100
AcDbEntity
  8
BIN
100
AcDbLine
 10
-2792.288383571901
 20
-2910.730267144137
 30
0.0
 11
-2848.669940819042
 21
-2931.251475743652
 31
0.0
  0
LINE
  5
B4
100
AcDbEntity
  8
BIN
100
AcDbLine
 10
-2820.479162195464
 20
-2920.990871443882
 30
0.0
 11
-2824.583403915372
 21
-2909.714559994451
 31
0.0
  0
LINE
  5
B5
100
AcDbEntity
  8
BIN
100
AcDbLine
 10
-2834.574551507251
 20
-2926.121173593772
 30
0.0
 11
-2838.678793227159
 21
-2914.844862144341
 31
0.0
  0
LINE
  5
B6
100
AcDbEntity
  8
BIN
100
AcDbLine
 10
-2806.383772883674
 20
-2915.860569294003
 30
0.0
 11
-2810.488014603582
 21
-2904.584257844572
 31
0.0
  0
LINE
  5
B7
100
AcDbEntity
  8
BIN
100
AcDbLine
 10
-2810.488014603591
 20
-2904.584257844568
 30
0.0
 11
-2824.583403915374
 21
-2909.714559994434
 31
0.0
  0
LINE
  5
B8
100
AcDbEntity
  8
BIN
100
AcDbLine
 10
-2796.392625291808
 20
-2899.45395569473
 30
0.0
 11
-2852.77418253895
 21
-2919.975164294221
 31
0.0
  0
LINE
  5
B9
100
AcDbEntity
  8
BIN
100
AcDbLine
 10
-2820.479162195464
 20
-2920.990871443882
 30
0.0
 11
-2806.383772883676
 21
-2915.860569293997
 31
0.0
  0
LINE
  5
BA
100
AcDbEntity
  8
BIN
100
AcDbLine
 10
-3770.458127308435
 20
-1273.921430196224
 30
0.0
 11
-3273.620748579212
 21
-1257.295317572667
 31
0.0
  0
LINE
  5
BB
100
AcDbEntity
  8
BIN
100
AcDbLine
 10
-3768.458127308479
 20
-1278.854502411258
 30
0.0
 11
-3768.458127308415
 21
-1273.854502411257
 31
0.0
  0
LINE
  5
BC
100
AcDbEntity
  8
BIN
100
AcDbLine
 10
-3275.620748579236
 20
-1262.529564820052
 30
0.0
 11
-3275.620748579216
 21
-1257.362245357634
 31
0.0
  0
LINE
  5
BD
100
AcDbEntity
  8
BIN
100
AcDbLine
 10
-3602.588680735811
 20
-1273.30386508486
 30
0.0
 11
-3602.588680735824
 21
-1268.303865084861
 31
0.0
  0
LINE
  5
BE
100
AcDbEntity
  8
BIN
100
AcDbLine
 10
-2905.45812730839
 20
-1268.629067065352
 30
0.0
 11
-2905.45812730839
 21
-1247.457039441236
 31
0.0
  0
LINE
  5
BF
100
AcDbEntity
  8
BIN
100
AcDbLine
 10
-2321.45812730839
 20
-1273.921430196226
 30
0.0
 11
-2321.458127308388
 21
-1254.587361229333
 31
0.0
  0
ARC
  5
C0
100
AcDbEntity
  8
BIN
100
AcDbCircle
 10
-2213.458127308378
 20
42867.79726464687
 30
0.0
 40
44141.85081455761
100
AcDbArc
 50
269.1017525799078
 51
269.8598166989628
  0
ARC
  5
C1
100
AcDbEntity
  8
BIN
100
AcDbCircle
 10
-2213.458127308374
 20
42878.06113643625
 30
0.0
 40
44141.85081455761
100
AcDbArc
 50
269.1017525799078
 51
269.8598166989628
  0
LINE
  5
C2
100
AcDbEntity
  8
BIN
100
AcDbLine
 10
-2903.45812730839
 20
-1273.795970484557
 30
0.0
 11
-2903.45812730839
 21
-1268.660379059205
 31
0.0
  0
LINE
  5
C3
100
AcDbEntity
  8
BIN
100
AcDbLine
 10
-2323.45812730839
 20
-1279.052082982611
 30
0.0
 11
-2323.45812730839
 21
-1273.916491557254
 31
0.0
  0
LINE
  5
C4
100
AcDbEntity
  8
BIN
100
AcDbLine
 10
-2905.45812730839
 20
-1247.457039441236
 30
0.0
 11
-2321.458127308387
 21
-1254.587361229333
 31
0.0
  0
LINE
  5
C5
100
AcDbEntity
  8
BIN
100
AcDbLine
 10
-2913.458127308388
 20
-1259.189141336091
 30
0.0
 11
-2905.458127308387
 21
-1259.286816977024
 31
0.0
  0
LINE
  5
C6
100
AcDbEntity
  8
BIN
100
AcDbLine
 10
-1521.45812730839
 20
-1268.629067065352
 30
0.0
 11
-1521.45812730839
 21
-1247.457039441236
 31
0.0
  0
LINE
  5
C7
100
AcDbEntity
  8
BIN
100
AcDbLine
 10
-2105.45812730839
 20
-1273.921430196226
 30
0.0
 11
-2105.458127308392
 21
-1254.587361229333
 31
0.0
  0
ARC
  5
C8
100
AcDbEntity
  8
BIN
100
AcDbCircle
 10
-2213.458127308402
 20
42867.79726464686
 30
0.0
 40
44141.85081455761
100
AcDbArc
 50
270.1401833010371
 51
270.898247420092
  0
ARC
  5
C9
100
AcDbEntity
  8
BIN
100
AcDbCircle
 10
-2213.458127308406
 20
42878.06113643623
 30
0.0
 40
44141.85081455761
100
AcDbArc
 50
270.1401833010371
 51
270.898247420092
  0
LINE
  5
CA
100
AcDbEntity
  8
BIN
100
AcDbLine
 10
-1523.45812730839
 20
-1273.795970484557
 30
0.0
 11
-1523.45812730839
 21
-1268.660379059205
 31
0.0
  0
LINE
  5
CB
100
AcDbEntity
  8
BIN
100
AcDbLine
 10
-2103.45812730839
 20
-1279.052082982611
 30
0.0
 11
-2103.45812730839
 21
-1273.916491557254
 31
0.0
  0
LINE
  5
CC
100
AcDbEntity
  8
BIN
100
AcDbLine
 10
-1521.45812730839
 20
-1247.457039441236
 30
0.0
 11
-2105.458127308392
 21
-1254.587361229333
 31
0.0
  0
LINE
  5
CD
100
AcDbEntity
  8
BIN
100
AcDbLine
 10
-1513.458127308392
 20
-1259.189141336091
 30
0.0
 11
-1521.458127308393
 21
-1259.286816977024
 31
0.0
  0
LWPOLYLINE
  5
CE
100
AcDbEntity
  8
BIN
100
AcDbPolyline
 90
        6
 70
     1
 43
0.0
 10
-2377.879140462949
 20
-2770.028058881568
 10
-2385.919080568666
 20
-2775.657685550345
 10
-2385.06365091254
 20
-2785.43529126119
 10
-2376.168281150698
 20
-2789.583270303257
 10
-2368.128341044981
 20
-2783.95364363448
 10
-2368.983770701106
 20
-2774.176037923634
  0
LWPOLYLINE
  5
CF
100
AcDbEntity
  8
BIN
100
AcDbPolyline
 90
        6
 70
     1
 43
0.0
 10
-2398.90555823919
 20
-2782.547577479609
 10
-2408.571401601317
 20
-2780.843228503564
 10
-2414.88033279255
 20
-2788.361919916145
 10
-2411.523420621655
 20
-2797.584960304772
 10
-2401.857577259527
 20
-2799.289309280816
 10
-2395.548646068295
 20
-2791.770617868236
  0
LWPOLYLINE
  5
D0
100
AcDbEntity
  8
BIN
100
AcDbPolyline
 90
        6
 70
     1
 43
0.0
 10
-2835.59486019662
 20
-2937.666402197493
 10
-2837.299209172664
 20
-2947.332245559621
 10
-2829.780517760083
 20
-2953.641176750854
 10
-2820.557477371457
 20
-2950.284264579959
 10
-2818.853128395412
 20
-2940.618421217831
 10
-2826.371819807993
 20
-2934.309490026597
  0
LINE
  5
D1
100
AcDbEntity
  8
BIN
100
AcDbLine
 10
-2835.396488441949
 20
-2967.719986427974
 30
0.0
 11
-2782.579926011622
 21
-2937.404035068667
 31
0.0
  0
LINE
  5
D2
100
AcDbEntity
  8
BIN
100
AcDbLine
 10
-2819.99201518135
 20
-2834.615164860407
 30
0.0
 11
-2876.37357242836
 21
-2855.136373460058
 31
0.0
  0
LINE
  5
D3
100
AcDbEntity
  8
BIN
100
AcDbLine
 10
-2453.511893075103
 20
-2701.227308962449
 30
0.0
 11
-2397.130335827933
 21
-2680.706100362904
 31
0.0
  0
LINE
  5
D4
100
AcDbEntity
  8
BIN
100
AcDbLine
 10
-2854.82630339889
 20
-2914.337008569524
 30
0.0
 11
-2905.45812730839
 21
-2932.765485379198
 31
0.0
  0
LINE
  5
D5
100
AcDbEntity
  8
BIN
100
AcDbLine
 10
-2321.458127308385
 20
-2720.206868567741
 30
0.0
 11
-2375.583066798073
 21
-2739.90673547344
 31
0.0
  0
LINE
  5
D6
100
AcDbEntity
  8
BIN
100
AcDbLine
 10
-2431.96462404523
 20
-2760.427944072981
 30
0.0
 11
-2798.44474615177
 21
-2893.815799970001
 31
0.0
  0
LINE
  5
D7
100
AcDbEntity
  8
AXES
100
AcDbLine
 10
-373.6701605762494
 20
-2293.572692192476
 30
0.0
 11
-522.6870384107408
 21
-2293.572692192476
 31
0.0
  0
LINE
  5
D8
100
AcDbEntity
  8
BIN
100
AcDbLine
 10
-403.3207467833196
 20
-2263.572692192468
 30
0.0
 11
-512.4423911284128
 21
-2263.572692192524
 31
0.0
  0
LINE
  5
D9
100
AcDbEntity
  8
BIN
100
AcDbLine
 10
-392.6334126627921
 20
-2323.572692192479
 30
0.0
 11
-512.4423911282597
 21
-2323.572692192424
 31
0.0
  0
LINE
  5
DA
100
AcDbEntity
  8
AXES
100
AcDbLine
 10
-399.5120420344934
 20
-2308.572692192475
 30
0.0
 11
-424.4528116961935
 21
-2308.572692192475
 31
0.0
  0
LINE
  5
DB
100
AcDbEntity
  8
AXES
100
AcDbLine
 10
-395.2192278765648
 20
-2278.572692192475
 30
0.0
 11
-424.9941743595203
 21
-2278.572692192475
 31
0.0
  0
LINE
  5
DC
100
AcDbEntity
  8
AXES
100
AcDbLine
 10
-412.4423911283129
 20
-2272.608875133232
 30
0.0
 11
-412.4423911283129
 21
-2314.094898218287
 31
0.0
  0
LINE
  5
DD
100
AcDbEntity
  8
BIN
100
AcDbLine
 10
-431.4423911283229
 20
-2263.572692192482
 30
0.0
 11
-431.4423911283411
 21
-2323.57269219246
 31
0.0
  0
LINE
  5
DE
100
AcDbEntity
  8
BIN
100
AcDbLine
 10
-431.4423911283411
 20
-2293.57269219246
 30
0.0
 11
-443.4423911283412
 21
-2293.57269219246
 31
0.0
  0
LINE
  5
DF
100
AcDbEntity
  8
BIN
100
AcDbLine
 10
-431.4423911283345
 20
-2308.57269219246
 30
0.0
 11
-443.4423911283347
 21
-2308.57269219246
 31
0.0
  0
LINE
  5
E0
100
AcDbEntity
  8
BIN
100
AcDbLine
 10
-431.4423911283345
 20
-2278.57269219246
 30
0.0
 11
-443.4423911283347
 21
-2278.57269219246
 31
0.0
  0
LINE
  5
E1
100
AcDbEntity
  8
BIN
100
AcDbLine
 10
-443.4423911283419
 20
-2278.572692192468
 30
0.0
 11
-443.4423911283578
 21
-2293.572692192456
 31
0.0
  0
LINE
  5
E2
100
AcDbEntity
  8
BIN
100
AcDbLine
 10
-443.4423911282985
 20
-2263.572692192488
 30
0.0
 11
-443.4423911283412
 21
-2323.57269219246
 31
0.0
  0
LINE
  5
E3
100
AcDbEntity
  8
BIN
100
AcDbLine
 10
-431.4423911283411
 20
-2293.57269219246
 30
0.0
 11
-431.4423911283411
 21
-2278.57269219246
 31
0.0
  0
LWPOLYLINE
  5
E4
100
AcDbEntity
  8
BIN
100
AcDbPolyline
 90
        6
 70
     1
 43
0.0
 10
-417.3498684164192
 20
-2300.072692192445
 10
-422.2573457045306
 20
-2308.572692192444
 10
-417.3498684164192
 20
-2317.072692192444
 10
-407.5349138401949
 20
-2317.072692192444
 10
-402.6274365520835
 20
-2308.572692192444
 10
-407.5349138401949
 20
-2300.072692192445
  0
LWPOLYLINE
  5
E5
100
AcDbEntity
  8
BIN
100
AcDbPolyline
 90
        6
 70
     1
 43
0.0
 10
-421.9229092373355
 20
-2276.032395021278
 10
-419.3826120661923
 20
-2285.512913130307
 10
-409.9020939571639
 20
-2288.05321030145
 10
-402.9618730192786
 20
-2281.112989363565
 10
-405.5021701904218
 20
-2271.632471254536
 10
-414.9826882994502
 20
-2269.092174083393
  0
LINE
  5
E6
100
AcDbEntity
  8
BIN
100
AcDbLine
 10
-512.4423911284128
 20
-2263.572692192524
 30
0.0
 11
-512.4423911282597
 21
-2323.572692192426
 31
0.0
  0
LINE
  5
E7
100
AcDbEntity
  8
BIN
100
AcDbLine
 10
-449.4423911283102
 20
-2212.293294665047
 30
0.0
 11
-449.4423911283146
 21
-2263.572692192491
 31
0.0
  0
LINE
  5
E8
100
AcDbEntity
  8
BIN
100
AcDbLine
 10
-449.4423911283188
 20
-2323.572692192456
 30
0.0
 11
-449.4423911283123
 21
-2377.453953776863
 31
0.0
  0
LWPOLYLINE
  5
E9
100
AcDbEntity
  8
BIN
100
AcDbPolyline
 90
        6
 70
     1
 43
0.0
 10
-2800.740819816565
 20
-2923.937123378103
 10
-2808.780759922282
 20
-2929.56675004688
 10
-2807.925330266156
 20
-2939.344355757725
 10
-2799.029960504315
 20
-2943.492334799794
 10
-2790.990020398597
 20
-2937.862708131014
 10
-2791.845450054722
 20
-2928.085102420169
  0
LINE
  5
EA
100
AcDbEntity
  8
BIN
100
AcDbLine
 10
-1644.246039874323
 20
-2937.155968819496
 30
0.0
 11
-1606.924239435428
 21
-2834.615164860407
 31
0.0
  0
LINE
  5
EB
100
AcDbEntity
  8
BIN
100
AcDbLine
 10
-1591.519766174831
 20
-2967.719986427972
 30
0.0
 11
-1550.542682188421
 21
-2855.136373460056
 31
0.0
  0
LINE
  5
EC
100
AcDbEntity
  8
BIN
100
AcDbLine
 10
-2072.538436704886
 20
-2798.167677962179
 30
0.0
 11
-2029.785918788795
 21
-2680.706100362759
 31
0.0
  0
LINE
  5
ED
100
AcDbEntity
  8
BIN
100
AcDbLine
 10
-2011.90437284307
 20
-2807.005220661883
 30
0.0
 11
-1973.404361541676
 21
-2701.227308962448
 31
0.0
  0
LINE
  5
EE
100
AcDbEntity
  8
BIN
100
AcDbLine
 10
-2011.904372843075
 20
-2807.005220661883
 30
0.0
 11
-2072.538436704872
 21
-2798.167677962176
 31
0.0
  0
LINE
  5
EF
100
AcDbEntity
  8
BIN
100
AcDbLine
 10
-2001.107993151415
 20
-2777.342411247156
 30
0.0
 11
-2057.489550398524
 21
-2756.8212026476
 31
0.0
  0
LINE
  5
F0
100
AcDbEntity
  8
BIN
100
AcDbLine
 10
-2029.298771774948
 20
-2767.08180694737
 30
0.0
 11
-2025.194530055039
 21
-2755.805495497939
 31
0.0
  0
LINE
  5
F1
100
AcDbEntity
  8
BIN
100
AcDbLine
 10
-2043.394161086738
 20
-2761.951504797491
 30
0.0
 11
-2039.289919366831
 21
-2750.67519334806
 31
0.0
  0
LINE
  5
F2
100
AcDbEntity
  8
BIN
100
AcDbLine
 10
-2015.203382463161
 20
-2772.21210909726
 30
0.0
 11
-2011.099140743254
 21
-2760.93579764783
 31
0.0
  0
LINE
  5
F3
100
AcDbEntity
  8
BIN
100
AcDbLine
 10
-1997.003751431536
 20
-2766.066099797794
 30
0.0
 11
-2053.385308678616
 21
-2745.544891198168
 31
0.0
  0
LINE
  5
F4
100
AcDbEntity
  8
BIN
100
AcDbLine
 10
-1634.627871044879
 20
-2910.730267144135
 30
0.0
 11
-1578.246313797738
 21
-2931.251475743651
 31
0.0
  0
LINE
  5
F5
100
AcDbEntity
  8
BIN
100
AcDbLine
 10
-1606.437092421316
 20
-2920.99087144388
 30
0.0
 11
-1602.332850701408
 21
-2909.71455999445
 31
0.0
  0
LINE
  5
F6
100
AcDbEntity
  8
BIN
100
AcDbLine
 10
-1592.341703109529
 20
-2926.121173593772
 30
0.0
 11
-1588.237461389621
 21
-2914.84486214434
 31
0.0
  0
LINE
  5
F7
100
AcDbEntity
  8
BIN
100
AcDbLine
 10
-1620.532481733106
 20
-2915.860569294002
 30
0.0
 11
-1616.428240013198
 21
-2904.58425784457
 31
0.0
  0
LINE
  5
F8
100
AcDbEntity
  8
BIN
100
AcDbLine
 10
-1616.428240013189
 20
-2904.584257844567
 30
0.0
 11
-1602.332850701406
 21
-2909.714559994433
 31
0.0
  0
LINE
  5
F9
100
AcDbEntity
  8
BIN
100
AcDbLine
 10
-1630.523629324973
 20
-2899.453955694729
 30
0.0
 11
-1574.14207207783
 21
-2919.975164294219
 31
0.0
  0
LINE
  5
FA
100
AcDbEntity
  8
BIN
100
AcDbLine
 10
-1606.437092421316
 20
-2920.99087144388
 30
0.0
 11
-1620.532481733103
 21
-2915.860569293995
 31
0.0
  0
LWPOLYLINE
  5
FB
100
AcDbEntity
  8
BIN
100
AcDbPolyline
 90
        6
 70
     1
 43
0.0
 10
-2049.037114153831
 20
-2770.028058881567
 10
-2040.997174048114
 20
-2775.657685550344
 10
-2041.85260370424
 20
-2785.43529126119
 10
-2050.747973466082
 20
-2789.583270303257
 10
-2058.787913571799
 20
-2783.953643634479
 10
-2057.932483915674
 20
-2774.176037923634
  0
LWPOLYLINE
  5
FC
100
AcDbEntity
  8
BIN
100
AcDbPolyline
 90
        6
 70
     1
 43
0.0
 10
-2028.010696377589
 20
-2782.547577479608
 10
-2018.344853015463
 20
-2780.843228503563
 10
-2012.035921824229
 20
-2788.361919916145
 10
-2015.392833995125
 20
-2797.584960304771
 10
-2025.058677357253
 20
-2799.289309280815
 10
-2031.367608548485
 20
-2791.770617868235
  0
LWPOLYLINE
  5
FD
100
AcDbEntity
  8
BIN
100
AcDbPolyline
 90
        6
 70
     1
 43
0.0
 10
-1591.32139442016
 20
-2937.666402197492
 10
-1589.617045444115
 20
-2947.33224555962
 10
-1597.135736856697
 20
-2953.641176750853
 10
-1606.358777245324
 20
-2950.284264579957
 10
-1608.063126221368
 20
-2940.61842121783
 10
-1600.544434808787
 20
-2934.309490026597
  0
LINE
  5
FE
100
AcDbEntity
  8
BIN
100
AcDbLine
 10
-1591.519766174831
 20
-2967.719986427972
 30
0.0
 11
-1644.336328605159
 21
-2937.404035068666
 31
0.0
  0
LINE
  5
FF
100
AcDbEntity
  8
BIN
100
AcDbLine
 10
-1606.92423943543
 20
-2834.615164860407
 30
0.0
 11
-1550.542682188419
 21
-2855.136373460057
 31
0.0
  0
LINE
  5
100
100
AcDbEntity
  8
BIN
100
AcDbLine
 10
-1973.404361541676
 20
-2701.227308962448
 30
0.0
 11
-2029.785918788847
 21
-2680.706100362903
 31
0.0
  0
LINE
  5
101
100
AcDbEntity
  8
BIN
100
AcDbLine
 10
-1572.08995121789
 20
-2914.337008569523
 30
0.0
 11
-1521.458127308389
 21
-2932.765485379197
 31
0.0
  0
LINE
  5
102
100
AcDbEntity
  8
BIN
100
AcDbLine
 10
-2105.458127308391
 20
-2720.206868567728
 30
0.0
 11
-2051.333187818708
 21
-2739.906735473439
 31
0.0
  0
LINE
  5
103
100
AcDbEntity
  8
BIN
100
AcDbLine
 10
-1994.95163057155
 20
-2760.427944072981
 30
0.0
 11
-1628.47150846501
 21
-2893.81579997
 31
0.0
  0
LWPOLYLINE
  5
104
100
AcDbEntity
  8
BIN
100
AcDbPolyline
 90
        6
 70
     1
 43
0.0
 10
-1626.175434800215
 20
-2923.937123378102
 10
-1618.135494694498
 20
-2929.566750046879
 10
-1618.990924350624
 20
-2939.344355757724
 10
-1627.886294112466
 20
-2943.492334799792
 10
-1635.926234218183
 20
-2937.862708131014
 10
-1635.070804562058
 20
-2928.085102420168
  0
LINE
  5
105
100
AcDbEntity
  8
BIN
100
AcDbLine
 10
-536.2940925898367
 20
-2416.657136163049
 30
0.0
 11
-437.4423911283598
 21
-2416.657136163054
 31
0.0
  0
LINE
  5
106
100
AcDbEntity
  8
BIN
100
AcDbLine
 10
-539.8074567689601
 20
-2431.657136163049
 30
0.0
 11
-353.3087601030996
 21
-2431.657136163049
 31
0.0
  0
LINE
  5
107
100
AcDbEntity
  8
BIN
100
AcDbLine
 10
-449.4423911283087
 20
-2416.657136163054
 30
0.0
 11
-449.4423911283391
 21
-2426.657136163047
 31
0.0
  0
LINE
  5
108
100
AcDbEntity
  8
BIN
100
AcDbLine
 10
-512.4423911280294
 20
-2413.657136163054
 30
0.0
 11
-442.6385435510647
 21
-2413.657136163054
 31
0.0
  0
CIRCLE
  5
109
100
AcDbEntity
  8
BIN
100
AcDbCircle
 10
-437.4423911283591
 20
-2410.657136163054
 30
0.0
 40
6.0
  0
LINE
  5
10A
100
AcDbEntity
  8
BIN
100
AcDbLine
 10
-512.4423911280294
 20
-2413.657136163054
 30
0.0
 11
-512.4423911280294
 21
-2416.657136163053
 31
0.0
  0
LINE
  5
10B
100
AcDbEntity
  8
BIN
100
AcDbLine
 10
-443.4423911283592
 20
-2410.657136163054
 30
0.0
 11
-443.4423911283592
 21
-2427.657136163054
 31
0.0
  0
LINE
  5
10C
100
AcDbEntity
  8
BIN
100
AcDbLine
 10
-439.4423911283254
 20
-2428.65713616305
 30
0.0
 11
-391.6606005492457
 21
-2428.65713616305
 31
0.0
  0
LINE
  5
10D
100
AcDbEntity
  8
BIN
100
AcDbLine
 10
-440.4423911283592
 20
-2415.85328858576
 30
0.0
 11
-440.4423911283592
 21
-2427.657136163051
 31
0.0
  0
CIRCLE
  5
10E
100
AcDbEntity
  8
BIN
100
AcDbCircle
 10
-437.4423911283591
 20
-2410.657136163054
 30
0.0
 40
3.0
  0
ARC
  5
10F
100
AcDbEntity
  8
BIN
100
AcDbCircle
 10
-439.4423911283254
 20
-2427.657136163051
 30
0.0
 40
0.9999999999999998
100
AcDbArc
 50
180.0
 51
270.0
  0
ARC
  5
110
100
AcDbEntity
  8
BIN
100
AcDbCircle
 10
-439.442391128428
 20
-2427.657136163054
 30
0.0
 40
3.999999999999999
100
AcDbArc
 50
179.9999999999948
 51
270.0
  0
LINE
  5
111
100
AcDbEntity
  8
BIN
100
AcDbLine
 10
-539.8074567689601
 20
-2426.657136163049
 30
0.0
 11
-449.4423911283398
 21
-2426.657136163049
 31
0.0
  0
LINE
  5
112
100
AcDbEntity
  8
BIN
100
AcDbLine
 10
-421.2573457042435
 20
-2420.657136163001
 30
0.0
 11
-403.6274365516747
 21
-2420.657136162979
 31
0.0
  0
LINE
  5
113
100
AcDbEntity
  8
BIN
100
AcDbLine
 10
-402.6274365520438
 20
-2421.657136162613
 30
0.0
 11
-402.6274365520835
 21
-2428.657136163036
 31
0.0
  0
LINE
  5
114
100
AcDbEntity
  8
BIN
100
AcDbLine
 10
-407.5349138401811
 20
-2420.65713616306
 30
0.0
 11
-407.5349138401949
 21
-2428.657136163036
 31
0.0
  0
LINE
  5
115
100
AcDbEntity
  8
BIN
100
AcDbLine
 10
-422.257345704519
 20
-2421.657136163278
 30
0.0
 11
-422.2573457045422
 21
-2428.657136163036
 31
0.0
  0
LINE
  5
116
100
AcDbEntity
  8
BIN
100
AcDbLine
 10
-417.3498684164445
 20
-2420.65713616306
 30
0.0
 11
-417.3498684164307
 21
-2428.657136163036
 31
0.0
  0
LINE
  5
117
100
AcDbEntity
  8
BIN
100
AcDbLine
 10
-422.2573457045176
 20
-2421.657136163001
 30
0.0
 11
-421.2573457045179
 21
-2420.657136163
 31
0.0
  0
LINE
  5
118
100
AcDbEntity
  8
BIN
100
AcDbLine
 10
-403.6274365520435
 20
-2420.657136162979
 30
0.0
 11
-402.6274365520438
 21
-2421.657136162982
 31
0.0
  0
TEXT
  5
119
100
AcDbEntity
  8
COMMENTS
100
AcDbText
 10
-4138.513628659757
 20
-3974.342398730552
 30
0.0
 40
23.22950816791624
  1
Drg. version 3.1 / 4 August 2017
 41
0.6000000000000001
  7
ARIAL
 11
-4138.513628659757
 21
-3974.342398730552
 31
0.0
100
AcDbText
 73
     1
  0
TEXT
  5
11A
100
AcDbEntity
  8
COMMENTS
100
AcDbText
 10
-4138.513628659757
 20
-4009.186660982427
 30
-34.84426225187437
 40
23.22950816791624
  1
Copyright David Byrden
 41
0.6000000000000001
  7
ARIAL
 11
-4138.513628659757
 21
-4009.186660982427
 31
-34.84426225187437
100
AcDbText
 73
     1
  0
LINE
  5
11B
100
AcDbEntity
  8
AXES
  6
CONTINUOUS
100
AcDbLine
 10
-1947.510540723922
 20
-3993.444576414951
 30
0.0
 11
-2451.063535342801
 21
-3993.444576414951
 31
0.0
  0
LINE
  5
11C
100
AcDbEntity
  8
AXES
100
AcDbLine
 10
-2812.619779912558
 20
-2590.845084307552
 30
0.0
 11
-2847.942844275096
 21
-2508.450797893874
 31
0.0
  0
LINE
  5
11D
100
AcDbEntity
  8
AXES
100
AcDbLine
 10
-2422.794552713076
 20
-2482.304713291673
 30
0.0
 11
-2435.135803185056
 21
-2393.511521850172
 31
0.0
  0
TEXT
  5
11E
100
AcDbEntity
  8
COMMENTS
100
AcDbText
 10
-573.2233252639885
 20
-2122.496883534181
 30
0.0
 40
74.25865977290655
  1
Hinge
 41
0.6
  7
ARIAL
 11
-573.2233252639885
 21
-2122.496883534181
 31
0.0
100
AcDbText
 73
     1
  0
LINE
  5
11F
100
AcDbEntity
  8
BIN
100
AcDbLine
 10
-2913.458127308388
 20
-1869.189141336092
 30
0.0
 11
-1513.45812730839
 21
-1869.189141336092
 31
0.0
  0
LINE
  5
120
100
AcDbEntity
  8
AXES
100
AcDbLine
 10
-1816.449539340968
 20
-2530.716125064309
 30
0.0
 11
-1793.501152487924
 21
-2446.454682258872
 31
0.0
  0
TEXT
  5
121
100
AcDbEntity
  8
COMMENTS
100
AcDbText
 10
-2765.392059814456
 20
-2410.120442604972
 30
0.0
 40
19.80230927277508
  1
Bin with 4 latches
 41
0.6
  7
ARIAL
 11
-2765.392059814456
 21
-2410.120442604972
 31
0.0
100
AcDbText
 73
     1
  0
TEXT
  5
122
100
AcDbEntity
  8
COMMENTS
100
AcDbText
 10
-1891.808982037342
 20
-2410.120442604972
 30
0.0
 40
19.80230927277508
  1
Bin with 2 latches
 41
0.6
  7
ARIAL
 11
-1891.808982037342
 21
-2410.120442604972
 31
0.0
100
AcDbText
 73
     1
  0
TEXT
  5
123
100
AcDbEntity
  8
COMMENTS
100
AcDbText
 10
-3271.075122888821
 20
-2008.959523750437
 30
0.0
 40
24.75288659096885
  1
Armour and pistol port
 41
0.6
  7
ARIAL
 11
-3271.075122888821
 21
-2008.959523750437
 31
0.0
100
AcDbText
 73
     1
  0
TEXT
  5
124
100
AcDbEntity
  8
COMMENTS
100
AcDbText
 10
-3271.075122888821
 20
-2046.08885363689
 30
-37.12932988645328
 40
24.75288659096885
  1
are drawn for size reference.
 41
0.6
  7
ARIAL
 11
-3271.075122888821
 21
-2046.08885363689
 31
-37.12932988645328
100
AcDbText
 73
     1
  0
TEXT
  5
125
100
AcDbEntity
  8
COMMENTS
100
AcDbText
 10
-2136.319899342308
 20
-1992.841900518442
 30
0.0
 40
24.75288659096885
  1
Bin is placed as 
 41
0.6
  7
ARIAL
 11
-2136.319899342308
 21
-1992.841900518442
 31
0.0
100
AcDbText
 73
     1
  0
TEXT
  5
126
100
AcDbEntity
  8
COMMENTS
100
AcDbText
 10
-2136.319899342308
 20
-2029.971230404895
 30
-37.12932988645328
 40
24.75288659096885
  1
in s.Pz.Abt. 501.
 41
0.6
  7
ARIAL
 11
-2136.319899342308
 21
-2029.971230404895
 31
-37.12932988645328
100
AcDbText
 73
     1
  0
TEXT
  5
127
100
AcDbEntity
  8
COMMENTS
100
AcDbText
 10
-4186.56600382754
 20
-2426.986226747475
 30
0.0
 40
99.01154636387543
  1
1.4m turret bin
 41
0.6
  7
ARIAL
 11
-4186.56600382754
 21
-2426.986226747475
 31
0.0
100
AcDbText
 73
     1
  0
ENDSEC
  0
SECTION
  2
OBJECTS
  0
DICTIONARY
  5
C
100
AcDbDictionary
  3
ACAD_GROUP
350
D
  3
ACAD_MLINESTYLE
350
1B
  3
ACDBVARIABLEDICTIONARY
350
1E
  0
DICTIONARY
  5
D
102
{ACAD_REACTORS
330
C
102
}
100
AcDbDictionary
  0
DICTIONARY
  5
1B
102
{ACAD_REACTORS
330
C
102
}
100
AcDbDictionary
  3
STANDARD
350
1C
  0
DICTIONARY
  5
1E
102
{ACAD_REACTORS
330
C
102
}
100
AcDbDictionary
  3
DIMADEC
350
1F
  0
MLINESTYLE
  5
1C
102
{ACAD_REACTORS
330
1B
102
}
100
AcDbMlineStyle
  2
STANDARD
 70
     0
  3

 62
   256
 51
90.0
 52
90.0
 71
     2
 49
0.5
 62
   256
  6
BYLAYER
 49
-0.5
 62
   256
  6
BYLAYER
  0
DICTIONARYVAR
  5
1F
102
{ACAD_REACTORS
330
1E
102
}
100
DictionaryVariables
280
     0
  1
-1
  0
ENDSEC
  0
EOF
