  0
SECTION
  2
HEADER
  9
$ACADVER
  1
AC1014
  9
$ACADMAINTVER
 70
     5
  9
$DWGCODEPAGE
  3
ANSI_1252
  9
$INSBASE
 10
0.0
 20
0.0
 30
0.0
  9
$EXTMIN
 10
1.000000000000000E+20
 20
1.000000000000000E+20
 30
1.000000000000000E+20
  9
$EXTMAX
 10
-1.000000000000000E+20
 20
-1.000000000000000E+20
 30
-1.000000000000000E+20
  9
$LIMMIN
 10
0.0
 20
0.0
  9
$LIMMAX
 10
12.0
 20
9.0
  9
$ORTHOMODE
 70
     0
  9
$REGENMODE
 70
     1
  9
$FILLMODE
 70
     1
  9
$QTEXTMODE
 70
     0
  9
$MIRRTEXT
 70
     1
  9
$DRAGMODE
 70
     2
  9
$LTSCALE
 40
1.0
  9
$OSMODE
 70
     0
  9
$ATTMODE
 70
     0
  9
$TEXTSIZE
 40
157.3348570920659
  9
$TRACEWID
 40
0.05
  9
$TEXTSTYLE
  7
STANDARD
  9
$CLAYER
  8
0
  9
$CELTYPE
  6
BYLAYER
  9
$CECOLOR
 62
   256
  9
$CELTSCALE
 40
1.0
  9
$DELOBJ
 70
     1
  9
$DISPSILH
 70
     0
  9
$DIMSCALE
 40
1.0
  9
$DIMASZ
 40
0.18
  9
$DIMEXO
 40
0.0625
  9
$DIMDLI
 40
0.38
  9
$DIMRND
 40
0.0
  9
$DIMDLE
 40
0.0
  9
$DIMEXE
 40
0.18
  9
$DIMTP
 40
0.0
  9
$DIMTM
 40
0.0
  9
$DIMTXT
 40
0.3097142856143031
  9
$DIMCEN
 40
0.09
  9
$DIMTSZ
 40
0.0
  9
$DIMTOL
 70
     0
  9
$DIMLIM
 70
     0
  9
$DIMTIH
 70
     1
  9
$DIMTOH
 70
     1
  9
$DIMSE1
 70
     0
  9
$DIMSE2
 70
     0
  9
$DIMTAD
 70
     0
  9
$DIMZIN
 70
     0
  9
$DIMBLK
  1

  9
$DIMASO
 70
     1
  9
$DIMSHO
 70
     1
  9
$DIMPOST
  1

  9
$DIMAPOST
  1

  9
$DIMALT
 70
     0
  9
$DIMALTD
 70
     2
  9
$DIMALTF
 40
25.4
  9
$DIMLFAC
 40
1.0
  9
$DIMTOFL
 70
     0
  9
$DIMTVP
 40
0.0
  9
$DIMTIX
 70
     0
  9
$DIMSOXD
 70
     0
  9
$DIMSAH
 70
     0
  9
$DIMBLK1
  1

  9
$DIMBLK2
  1

  9
$DIMSTYLE
  2
STANDARD
  9
$DIMCLRD
 70
     0
  9
$DIMCLRE
 70
     0
  9
$DIMCLRT
 70
     0
  9
$DIMTFAC
 40
1.0
  9
$DIMGAP
 40
0.09
  9
$DIMJUST
 70
     0
  9
$DIMSD1
 70
     0
  9
$DIMSD2
 70
     0
  9
$DIMTOLJ
 70
     1
  9
$DIMTZIN
 70
     0
  9
$DIMALTZ
 70
     0
  9
$DIMALTTZ
 70
     0
  9
$DIMFIT
 70
     3
  9
$DIMUPT
 70
     0
  9
$DIMUNIT
 70
     4
  9
$DIMDEC
 70
    -1
  9
$DIMTDEC
 70
     4
  9
$DIMALTU
 70
     2
  9
$DIMALTTD
 70
     2
  9
$DIMTXSTY
  7
STANDARD
  9
$DIMAUNIT
 70
     1
  9
$LUNITS
 70
     2
  9
$LUPREC
 70
     0
  9
$SKETCHINC
 40
0.1
  9
$FILLETRAD
 40
25.0
  9
$AUNITS
 70
     0
  9
$AUPREC
 70
     2
  9
$MENU
  1
.
  9
$ELEVATION
 40
0.0
  9
$PELEVATION
 40
0.0
  9
$THICKNESS
 40
0.0
  9
$LIMCHECK
 70
     0
  9
$BLIPMODE
 70
     0
  9
$CHAMFERA
 40
1.999999999999999
  9
$CHAMFERB
 40
1.999999999999999
  9
$CHAMFERC
 40
0.0
  9
$CHAMFERD
 40
0.0
  9
$SKPOLY
 70
     0
  9
$TDCREATE
 40
0.0000000000
  9
$TDUPDATE
 40
0.0000000000
  9
$TDINDWG
 40
0.0000000000
  9
$TDUSRTIMER
 40
0.0000000000
  9
$USRTIMER
 70
     1
  9
$ANGBASE
 50
0.0
  9
$ANGDIR
 70
     0
  9
$PDMODE
 70
     0
  9
$PDSIZE
 40
0.0
  9
$PLINEWID
 40
0.0
  9
$COORDS
 70
     1
  9
$SPLFRAME
 70
     0
  9
$SPLINETYPE
 70
     6
  9
$SPLINESEGS
 70
     8
  9
$ATTDIA
 70
     0
  9
$ATTREQ
 70
     1
  9
$HANDLING
 70
     1
  9
$HANDSEED
  5
14A
  9
$SURFTAB1
 70
     6
  9
$SURFTAB2
 70
     6
  9
$SURFTYPE
 70
     6
  9
$SURFU
 70
     6
  9
$SURFV
 70
     6
  9
$UCSNAME
  2

  9
$UCSORG
 10
0.0
 20
0.0
 30
0.0
  9
$UCSXDIR
 10
1.0
 20
0.0
 30
0.0
  9
$UCSYDIR
 10
0.0
 20
1.0
 30
0.0
  9
$PUCSNAME
  2

  9
$PUCSORG
 10
0.0
 20
0.0
 30
0.0
  9
$PUCSXDIR
 10
1.0
 20
0.0
 30
0.0
  9
$PUCSYDIR
 10
0.0
 20
1.0
 30
0.0
  9
$USERI1
 70
     0
  9
$USERI2
 70
     0
  9
$USERI3
 70
     0
  9
$USERI4
 70
     0
  9
$USERI5
 70
     0
  9
$USERR1
 40
0.0
  9
$USERR2
 40
0.0
  9
$USERR3
 40
0.0
  9
$USERR4
 40
0.0
  9
$USERR5
 40
0.0
  9
$WORLDVIEW
 70
     1
  9
$SHADEDGE
 70
     3
  9
$SHADEDIF
 70
    70
  9
$TILEMODE
 70
     1
  9
$MAXACTVP
 70
    48
  9
$PINSBASE
 10
0.0
 20
0.0
 30
0.0
  9
$PLIMCHECK
 70
     0
  9
$PEXTMIN
 10
1.000000000000000E+20
 20
1.000000000000000E+20
 30
1.000000000000000E+20
  9
$PEXTMAX
 10
-1.000000000000000E+20
 20
-1.000000000000000E+20
 30
-1.000000000000000E+20
  9
$PLIMMIN
 10
0.0
 20
0.0
  9
$PLIMMAX
 10
12.0
 20
9.0
  9
$UNITMODE
 70
     0
  9
$VISRETAIN
 70
     1
  9
$PLINEGEN
 70
     0
  9
$PSLTSCALE
 70
     1
  9
$TREEDEPTH
 70
  3020
  9
$PICKSTYLE
 70
     1
  9
$CMLSTYLE
  2
STANDARD
  9
$CMLJUST
 70
     0
  9
$CMLSCALE
 40
1.0
  9
$PROXYGRAPHICS
 70
     1
  9
$MEASUREMENT
 70
     0
  0
ENDSEC
  0
SECTION
  2
CLASSES
  0
CLASS
  1
DICTIONARYVAR
  2
AcDbDictionaryVar
  3
"AutoCAD"
 90
        0
280
     0
281
     0
  0
CLASS
  1
LWPOLYLINE
  2
AcDbPolyline
  3
"AutoCAD"
 90
        0
280
     0
281
     1
  0
ENDSEC
  0
SECTION
  2
TABLES
  0
TABLE
  2
VPORT
  5
8
100
AcDbSymbolTable
 70
     1
  0
VPORT
  5
11
100
AcDbSymbolTableRecord
100
AcDbViewportTableRecord
  2
*ACTIVE
 70
     0
 10
0.0
 20
0.0
 11
1.0
 21
1.0
 12
3.6
 22
4.5
 13
0.0
 23
0.0
 14
1.0
 24
1.0
 15
0.0
 25
0.0
 16
0.0
 26
0.0
 36
1.0
 17
0.0
 27
0.0
 37
0.0
 40
15.0
 41
0.8
 42
50.0
 43
0.0
 44
0.0
 50
0.0
 51
0.0
 71
     0
 72
   100
 73
     1
 74
     1
 75
     0
 76
     0
 77
     0
 78
     0
  0
ENDTAB
  0
TABLE
  2
LTYPE
  5
5
100
AcDbSymbolTable
 70
    40
  0
LTYPE
  5
12
100
AcDbSymbolTableRecord
100
AcDbLinetypeTableRecord
  2
BYBLOCK
 70
     0
  3

 72
    65
 73
     0
 40
0.0
  0
LTYPE
  5
13
100
AcDbSymbolTableRecord
100
AcDbLinetypeTableRecord
  2
BYLAYER
 70
     0
  3

 72
    65
 73
     0
 40
0.0
  0
LTYPE
  5
14
100
AcDbSymbolTableRecord
100
AcDbLinetypeTableRecord
  2
CONTINUOUS
 70
     0
  3
Solid line
 72
    65
 73
     0
 40
0.0
  0
LTYPE
  5
20
100
AcDbSymbolTableRecord
100
AcDbLinetypeTableRecord
  2
HIDDEN
 70
     0
  3
_ _ _ _ _ _ _ _ _ _ _ _ _ _ 
 72
    65
 73
     2
 40
9.524999999999998
 49
6.349999999999999
 74
     0
 49
-3.174999999999999
 74
     0
  0
LTYPE
  5
21
100
AcDbSymbolTableRecord
100
AcDbLinetypeTableRecord
  2
DASHED
 70
     0
  3
__ __ __ __ __ __ __ __ __ 
 72
    65
 73
     2
 40
19.04999999999999
 49
12.7
 74
     0
 49
-6.349999999999999
 74
     0
  0
LTYPE
  5
22
100
AcDbSymbolTableRecord
100
AcDbLinetypeTableRecord
  2
CENTER
 70
     0
  3
____ _ ____ _ ____ _ ____ _ 
 72
    65
 73
     4
 40
50.8
 49
31.75
 74
     0
 49
-6.349999999999999
 74
     0
 49
6.349999999999999
 74
     0
 49
-6.349999999999999
 74
     0
  0
LTYPE
  5
23
100
AcDbSymbolTableRecord
100
AcDbLinetypeTableRecord
  2
PHANTOM
 70
     0
  3
_____ _ _ _____ _ _ _____ _ _ 
 72
    65
 73
     6
 40
63.50000000000001
 49
31.75
 74
     0
 49
-6.349999999999999
 74
     0
 49
6.349999999999999
 74
     0
 49
-6.349999999999999
 74
     0
 49
6.349999999999999
 74
     0
 49
-6.349999999999999
 74
     0
  0
LTYPE
  5
24
100
AcDbSymbolTableRecord
100
AcDbLinetypeTableRecord
  2
DOT
 70
     0
  3
...........................
 72
    65
 73
     2
 40
6.349999999999999
 49
0.0
 74
     0
 49
-6.349999999999999
 74
     0
  0
LTYPE
  5
25
100
AcDbSymbolTableRecord
100
AcDbLinetypeTableRecord
  2
DASHDOT
 70
     0
  3
__ . __ . __ . __ . __ . __ . 
 72
    65
 73
     4
 40
25.4
 49
12.7
 74
     0
 49
-6.349999999999999
 74
     0
 49
0.0
 74
     0
 49
-6.349999999999999
 74
     0
  0
LTYPE
  5
26
100
AcDbSymbolTableRecord
100
AcDbLinetypeTableRecord
  2
DIVIDE
 70
     0
  3
__ . . __ . . __ . . __ . . 
 72
    65
 73
     6
 40
31.75
 49
12.7
 74
     0
 49
-6.349999999999999
 74
     0
 49
0.0
 74
     0
 49
-6.349999999999999
 74
     0
 49
0.0
 74
     0
 49
-6.349999999999999
 74
     0
  0
LTYPE
  5
27
100
AcDbSymbolTableRecord
100
AcDbLinetypeTableRecord
  2
BORDER
 70
     0
  3
__ __ . __ __ . __ __ . __ __ .
 72
    65
 73
     6
 40
44.44999999999999
 49
12.7
 74
     0
 49
-6.349999999999999
 74
     0
 49
12.7
 74
     0
 49
-6.349999999999999
 74
     0
 49
0.0
 74
     0
 49
-6.349999999999999
 74
     0
  0
LTYPE
  5
28
100
AcDbSymbolTableRecord
100
AcDbLinetypeTableRecord
  2
BORDER2
 70
     0
  3
Border (.5x) __.__.__.__.__.__.
 72
    65
 73
     6
 40
0.875
 49
0.25
 74
     0
 49
-0.125
 74
     0
 49
0.25
 74
     0
 49
-0.125
 74
     0
 49
0.0
 74
     0
 49
-0.125
 74
     0
  0
LTYPE
  5
29
100
AcDbSymbolTableRecord
100
AcDbLinetypeTableRecord
  2
BORDERX2
 70
     0
  3
Border (2x) ____  ____  .  ____
 72
    65
 73
     6
 40
3.5
 49
1.0
 74
     0
 49
-0.5
 74
     0
 49
1.0
 74
     0
 49
-0.5
 74
     0
 49
0.0
 74
     0
 49
-0.5
 74
     0
  0
LTYPE
  5
2A
100
AcDbSymbolTableRecord
100
AcDbLinetypeTableRecord
  2
CENTER2
 70
     0
  3
Center (.5x) ___ _ ___ _ ___ _ 
 72
    65
 73
     4
 40
1.125
 49
0.75
 74
     0
 49
-0.125
 74
     0
 49
0.125
 74
     0
 49
-0.125
 74
     0
  0
LTYPE
  5
2B
100
AcDbSymbolTableRecord
100
AcDbLinetypeTableRecord
  2
CENTERX2
 70
     0
  3
Center (2x) ________  __  _____
 72
    65
 73
     4
 40
4.0
 49
2.5
 74
     0
 49
-0.5
 74
     0
 49
0.5
 74
     0
 49
-0.5
 74
     0
  0
LTYPE
  5
2C
100
AcDbSymbolTableRecord
100
AcDbLinetypeTableRecord
  2
DASHDOT2
 70
     0
  3
Dash dot (.5x) _._._._._._._._.
 72
    65
 73
     4
 40
0.5
 49
0.25
 74
     0
 49
-0.125
 74
     0
 49
0.0
 74
     0
 49
-0.125
 74
     0
  0
LTYPE
  5
2D
100
AcDbSymbolTableRecord
100
AcDbLinetypeTableRecord
  2
DASHDOTX2
 70
     0
  3
Dash dot (2x) ____  .  ____  . 
 72
    65
 73
     4
 40
2.0
 49
1.0
 74
     0
 49
-0.5
 74
     0
 49
0.0
 74
     0
 49
-0.5
 74
     0
  0
LTYPE
  5
2E
100
AcDbSymbolTableRecord
100
AcDbLinetypeTableRecord
  2
DASHED2
 70
     0
  3
Dashed (.5x) _ _ _ _ _ _ _ _ _ 
 72
    65
 73
     2
 40
0.375
 49
0.25
 74
     0
 49
-0.125
 74
     0
  0
LTYPE
  5
2F
100
AcDbSymbolTableRecord
100
AcDbLinetypeTableRecord
  2
DASHEDX2
 70
     0
  3
Dashed (2x) ____  ____  ____  _
 72
    65
 73
     2
 40
1.5
 49
1.0
 74
     0
 49
-0.5
 74
     0
  0
LTYPE
  5
30
100
AcDbSymbolTableRecord
100
AcDbLinetypeTableRecord
  2
DIVIDE2
 70
     0
  3
Divide (.5x) __..__..__..__..__
 72
    65
 73
     6
 40
0.625
 49
0.25
 74
     0
 49
-0.125
 74
     0
 49
0.0
 74
     0
 49
-0.125
 74
     0
 49
0.0
 74
     0
 49
-0.125
 74
     0
  0
LTYPE
  5
31
100
AcDbSymbolTableRecord
100
AcDbLinetypeTableRecord
  2
DIVIDEX2
 70
     0
  3
Divide (2x) ________  .  .  ___
 72
    65
 73
     6
 40
2.5
 49
1.0
 74
     0
 49
-0.5
 74
     0
 49
0.0
 74
     0
 49
-0.5
 74
     0
 49
0.0
 74
     0
 49
-0.5
 74
     0
  0
LTYPE
  5
32
100
AcDbSymbolTableRecord
100
AcDbLinetypeTableRecord
  2
DOT2
 70
     0
  3
Dot (.5x) .....................
 72
    65
 73
     2
 40
0.125
 49
0.0
 74
     0
 49
-0.125
 74
     0
  0
LTYPE
  5
33
100
AcDbSymbolTableRecord
100
AcDbLinetypeTableRecord
  2
DOTX2
 70
     0
  3
Dot (2x) .  .  .  .  .  .  .  .
 72
    65
 73
     2
 40
0.5
 49
0.0
 74
     0
 49
-0.5
 74
     0
  0
LTYPE
  5
34
100
AcDbSymbolTableRecord
100
AcDbLinetypeTableRecord
  2
HIDDEN2
 70
     0
  3
Hidden (.5x) _ _ _ _ _ _ _ _ _ 
 72
    65
 73
     2
 40
0.1875
 49
0.125
 74
     0
 49
-0.0625
 74
     0
  0
LTYPE
  5
35
100
AcDbSymbolTableRecord
100
AcDbLinetypeTableRecord
  2
HIDDENX2
 70
     0
  3
Hidden (2x) ____ ____ ____ ____
 72
    65
 73
     2
 40
0.75
 49
0.5
 74
     0
 49
-0.25
 74
     0
  0
LTYPE
  5
36
100
AcDbSymbolTableRecord
100
AcDbLinetypeTableRecord
  2
PHANTOM2
 70
     0
  3
Phantom (.5x) ___ _ _ ___ _ _ _
 72
    65
 73
     6
 40
1.25
 49
0.625
 74
     0
 49
-0.125
 74
     0
 49
0.125
 74
     0
 49
-0.125
 74
     0
 49
0.125
 74
     0
 49
-0.125
 74
     0
  0
LTYPE
  5
37
100
AcDbSymbolTableRecord
100
AcDbLinetypeTableRecord
  2
PHANTOMX2
 70
     0
  3
Phantom (2x) ____________    __
 72
    65
 73
     6
 40
5.0
 49
2.5
 74
     0
 49
-0.5
 74
     0
 49
0.5
 74
     0
 49
-0.5
 74
     0
 49
0.5
 74
     0
 49
-0.5
 74
     0
  0
LTYPE
  5
38
100
AcDbSymbolTableRecord
100
AcDbLinetypeTableRecord
  2
DOTS
 70
     0
  3
Dots - - - - - - - - - - - - - 
 72
    65
 73
     2
 40
0.1
 49
0.05
 74
     0
 49
-0.05
 74
     0
  0
LTYPE
  5
39
100
AcDbSymbolTableRecord
100
AcDbLinetypeTableRecord
  2
ACAD_ISO02W100
 70
     0
  3
__ __ __ __ __ __ __ __ __ __ _
 72
    65
 73
     2
 40
15.0
 49
12.0
 74
     0
 49
-3.0
 74
     0
  0
LTYPE
  5
3A
100
AcDbSymbolTableRecord
100
AcDbLinetypeTableRecord
  2
ACAD_ISO03W100
 70
     0
  3
__    __    __    __    __    _
 72
    65
 73
     2
 40
30.0
 49
12.0
 74
     0
 49
-18.0
 74
     0
  0
LTYPE
  5
3B
100
AcDbSymbolTableRecord
100
AcDbLinetypeTableRecord
  2
ACAD_ISO04W100
 70
     0
  3
____ . ____ . ____ . ____ . ___
 72
    65
 73
     4
 40
30.5
 49
24.0
 74
     0
 49
-3.0
 74
     0
 49
0.5
 74
     0
 49
-3.0
 74
     0
  0
LTYPE
  5
3C
100
AcDbSymbolTableRecord
100
AcDbLinetypeTableRecord
  2
ACAD_ISO05W100
 70
     0
  3
____ .. ____ .. ____ .. ____ ..
 72
    65
 73
     6
 40
34.0
 49
24.0
 74
     0
 49
-3.0
 74
     0
 49
0.5
 74
     0
 49
-3.0
 74
     0
 49
0.5
 74
     0
 49
-3.0
 74
     0
  0
LTYPE
  5
3D
100
AcDbSymbolTableRecord
100
AcDbLinetypeTableRecord
  2
ACAD_ISO06W100
 70
     0
  3
____ ... ____ ... ____ ... ____
 72
    65
 73
     6
 40
34.0
 49
24.0
 74
     0
 49
-3.0
 74
     0
 49
0.5
 74
     0
 49
-3.0
 74
     0
 49
0.5
 74
     0
 49
-3.0
 74
     0
  0
LTYPE
  5
3E
100
AcDbSymbolTableRecord
100
AcDbLinetypeTableRecord
  2
ACAD_ISO07W100
 70
     0
  3
. . . . . . . . . . . . . . . .
 72
    65
 73
     2
 40
3.5
 49
0.5
 74
     0
 49
-3.0
 74
     0
  0
LTYPE
  5
3F
100
AcDbSymbolTableRecord
100
AcDbLinetypeTableRecord
  2
ACAD_ISO08W100
 70
     0
  3
____ __ ____ __ ____ __ ____ __
 72
    65
 73
     4
 40
36.0
 49
24.0
 74
     0
 49
-3.0
 74
     0
 49
6.0
 74
     0
 49
-3.0
 74
     0
  0
LTYPE
  5
40
100
AcDbSymbolTableRecord
100
AcDbLinetypeTableRecord
  2
ACAD_ISO09W100
 70
     0
  3
____ __ __ ____ __ __ ____ __ _
 72
    65
 73
     6
 40
45.0
 49
24.0
 74
     0
 49
-3.0
 74
     0
 49
6.0
 74
     0
 49
-3.0
 74
     0
 49
6.0
 74
     0
 49
-3.0
 74
     0
  0
LTYPE
  5
41
100
AcDbSymbolTableRecord
100
AcDbLinetypeTableRecord
  2
ACAD_ISO10W100
 70
     0
  3
__ . __ . __ . __ . __ . __ . _
 72
    65
 73
     4
 40
18.5
 49
12.0
 74
     0
 49
-3.0
 74
     0
 49
0.5
 74
     0
 49
-3.0
 74
     0
  0
LTYPE
  5
42
100
AcDbSymbolTableRecord
100
AcDbLinetypeTableRecord
  2
ACAD_ISO11W100
 70
     0
  3
__ __ . __ __ . __ __ . __ __ .
 72
    65
 73
     6
 40
33.5
 49
12.0
 74
     0
 49
-3.0
 74
     0
 49
12.0
 74
     0
 49
-3.0
 74
     0
 49
0.5
 74
     0
 49
-3.0
 74
     0
  0
LTYPE
  5
43
100
AcDbSymbolTableRecord
100
AcDbLinetypeTableRecord
  2
ACAD_ISO12W100
 70
     0
  3
__ . . __ . . __ . . __ . . __ 
 72
    65
 73
     6
 40
22.0
 49
12.0
 74
     0
 49
-3.0
 74
     0
 49
0.5
 74
     0
 49
-3.0
 74
     0
 49
0.5
 74
     0
 49
-3.0
 74
     0
  0
LTYPE
  5
44
100
AcDbSymbolTableRecord
100
AcDbLinetypeTableRecord
  2
ACAD_ISO13W100
 70
     0
  3
__ __ . . __ __ . . __ __ . . _
 72
    65
 73
     6
 40
33.5
 49
12.0
 74
     0
 49
-3.0
 74
     0
 49
12.0
 74
     0
 49
-3.0
 74
     0
 49
0.5
 74
     0
 49
-3.0
 74
     0
  0
LTYPE
  5
45
100
AcDbSymbolTableRecord
100
AcDbLinetypeTableRecord
  2
ACAD_ISO14W100
 70
     0
  3
__ . . . __ . . . __ . . . __ .
 72
    65
 73
     6
 40
22.0
 49
12.0
 74
     0
 49
-3.0
 74
     0
 49
0.5
 74
     0
 49
-3.0
 74
     0
 49
0.5
 74
     0
 49
-3.0
 74
     0
  0
LTYPE
  5
46
100
AcDbSymbolTableRecord
100
AcDbLinetypeTableRecord
  2
ACAD_ISO15W100
 70
     0
  3
__ __ . . . __ __ . . . __ __ .
 72
    65
 73
     6
 40
33.5
 49
12.0
 74
     0
 49
-3.0
 74
     0
 49
12.0
 74
     0
 49
-3.0
 74
     0
 49
0.5
 74
     0
 49
-3.0
 74
     0
  0
ENDTAB
  0
TABLE
  2
LAYER
  5
2
100
AcDbSymbolTable
 70
     5
  0
LAYER
  5
E
100
AcDbSymbolTableRecord
100
AcDbLayerTableRecord
  2
0
 70
     0
 62
     7
  6
CONTINUOUS
  0
LAYER
  5
47
100
AcDbSymbolTableRecord
100
AcDbLayerTableRecord
  2
ARMOUR
 70
     4
 62
     7
  6
CONTINUOUS
  0
LAYER
  5
48
100
AcDbSymbolTableRecord
100
AcDbLayerTableRecord
  2
AXES
 70
     0
 62
     1
  6
CONTINUOUS
  0
LAYER
  5
49
100
AcDbSymbolTableRecord
100
AcDbLayerTableRecord
  2
COMMENTS
 70
     0
 62
    94
  6
CONTINUOUS
  0
LAYER
  5
4A
100
AcDbSymbolTableRecord
100
AcDbLayerTableRecord
  2
HEADLIGHTSTAND
 70
     0
 62
     7
  6
CONTINUOUS
  0
ENDTAB
  0
TABLE
  2
STYLE
  5
3
100
AcDbSymbolTable
 70
     5
  0
STYLE
  5
F
100
AcDbSymbolTableRecord
100
AcDbTextStyleTableRecord
  2
STANDARD
 70
     0
 40
0.0
 41
1.0
 50
0.0
 71
     0
 42
157.3348570920659
  3
txt
  4

  0
STYLE
  5
4B
100
AcDbSymbolTableRecord
100
AcDbTextStyleTableRecord
  2
ITALIC
 70
     0
 40
0.0
 41
1.0
 50
0.0
 71
     0
 42
157.3348570920659
  3
ITALIC
  4

  0
STYLE
  5
4C
100
AcDbSymbolTableRecord
100
AcDbTextStyleTableRecord
  2
SIMPLEX
 70
     0
 40
0.0
 41
1.0
 50
0.0
 71
     0
 42
157.3348570920659
  3
SIMPLEX
  4

  0
STYLE
  5
4D
100
AcDbSymbolTableRecord
100
AcDbTextStyleTableRecord
  2
COMPLEX
 70
     0
 40
0.0
 41
1.0
 50
0.0
 71
     0
 42
157.3348570920659
  3
COMPLEX
  4

  0
STYLE
  5
B3
100
AcDbSymbolTableRecord
100
AcDbTextStyleTableRecord
  2
ARIAL
 70
     0
 40
0.0
 41
1.0
 50
0.0
 71
     0
 42
157.3348570920659
  3
ARIAL.TTF
  4

1001
ACAD
1000
Arial
1071
        0
  0
ENDTAB
  0
TABLE
  2
VIEW
  5
6
100
AcDbSymbolTable
 70
     0
  0
ENDTAB
  0
TABLE
  2
UCS
  5
7
100
AcDbSymbolTable
 70
     0
  0
ENDTAB
  0
TABLE
  2
APPID
  5
9
100
AcDbSymbolTable
 70
     1
  0
APPID
  5
10
100
AcDbSymbolTableRecord
100
AcDbRegAppTableRecord
  2
ACAD
 70
     0
  0
ENDTAB
  0
TABLE
  2
DIMSTYLE
  5
A
100
AcDbSymbolTable
 70
     1
  0
DIMSTYLE
105
1D
100
AcDbSymbolTableRecord
100
AcDbDimStyleTableRecord
  2
STANDARD
 70
     0
  3

  4

  5

  6

  7

 40
1.0
 41
0.18
 42
0.0625
 43
0.38
 44
0.18
 45
0.0
 46
0.0
 47
0.0
 48
0.0
140
0.18
141
0.09
142
0.0
143
25.4
144
1.0
145
0.0
146
1.0
147
0.09
 71
     0
 72
     0
 73
     1
 74
     1
 75
     0
 76
     0
 77
     0
 78
     0
170
     0
171
     2
172
     0
173
     0
174
     0
175
     0
176
     0
177
     0
178
     0
270
     2
271
     4
272
     4
273
     2
274
     2
340
F
275
     0
280
     0
281
     0
282
     0
283
     1
284
     0
285
     0
286
     0
287
     3
288
     0
  0
ENDTAB
  0
TABLE
  2
BLOCK_RECORD
  5
1
100
AcDbSymbolTable
 70
     0
  0
BLOCK_RECORD
  5
18
100
AcDbSymbolTableRecord
100
AcDbBlockTableRecord
  2
*MODEL_SPACE
  0
BLOCK_RECORD
  5
15
100
AcDbSymbolTableRecord
100
AcDbBlockTableRecord
  2
*PAPER_SPACE
  0
ENDTAB
  0
ENDSEC
  0
SECTION
  2
BLOCKS
  0
BLOCK
  5
19
100
AcDbEntity
  8
0
100
AcDbBlockBegin
  2
*MODEL_SPACE
 70
     0
 10
0.0
 20
0.0
 30
0.0
  3
*MODEL_SPACE
  1

  0
ENDBLK
  5
1A
100
AcDbEntity
  8
0
100
AcDbBlockEnd
  0
BLOCK
  5
16
100
AcDbEntity
 67
     1
  8
0
100
AcDbBlockBegin
  2
*PAPER_SPACE
 70
     0
 10
0.0
 20
0.0
 30
0.0
  3
*PAPER_SPACE
  1

  0
ENDBLK
  5
17
100
AcDbEntity
 67
     1
  8
0
100
AcDbBlockEnd
  0
ENDSEC
  0
SECTION
  2
ENTITIES
  0
LINE
  5
4E
100
AcDbEntity
  8
ARMOUR
  6
CONTINUOUS
 62
     7
100
AcDbLine
 10
14521.97135719588
 20
298.2310276218456
 30
0.0
 11
14924.0178482453
 21
298.231027621846
 31
0.0
  0
LINE
  5
4F
100
AcDbEntity
  8
ARMOUR
  6
CONTINUOUS
 62
     7
100
AcDbLine
 10
14583.04990380877
 20
785.2310276218457
 30
0.0
 11
14999.88892900834
 21
785.2310276218455
 31
0.0
  0
LINE
  5
50
100
AcDbEntity
  8
ARMOUR
  6
CONTINUOUS
 62
     7
100
AcDbLine
 10
14292.11411798412
 20
375.5299313432288
 30
0.0
 11
14452.63778172512
 21
403.8345843029408
 31
0.0
  0
LINE
  5
51
100
AcDbEntity
  8
ARMOUR
  6
CONTINUOUS
 62
     7
100
AcDbLine
 10
14302.53300864414
 20
316.4414661624973
 30
0.0
 11
14442.7108821965
 21
341.1586073681192
 31
0.0
  0
LINE
  5
52
100
AcDbEntity
  8
ARMOUR
  6
CONTINUOUS
 62
     7
100
AcDbLine
 10
14438.01784824529
 20
311.5279571502651
 30
0.0
 11
14521.71028704182
 21
839.9412193686639
 31
0.0
  0
LINE
  5
53
100
AcDbEntity
  8
ARMOUR
  6
CONTINUOUS
 62
     7
100
AcDbLine
 10
14438.01784824529
 20
311.5279571502651
 30
0.0
 11
14521.97135719588
 21
298.2310276218456
 31
0.0
  0
LINE
  5
54
100
AcDbEntity
  8
ARMOUR
  6
CONTINUOUS
 62
     7
100
AcDbLine
 10
14546.71028704182
 20
839.9412193686639
 30
0.0
 11
14568.58123152001
 21
836.0847817635814
 31
0.0
  0
LINE
  5
55
100
AcDbEntity
  8
ARMOUR
  6
CONTINUOUS
 62
     7
100
AcDbLine
 10
14568.58123152001
 20
836.0847817635814
 30
0.0
 11
14583.15469465933
 21
785.2610759147148
 31
0.0
  0
LINE
  5
56
100
AcDbEntity
  8
ARMOUR
  6
CONTINUOUS
 62
     7
100
AcDbLine
 10
14521.71028704182
 20
839.9412193686639
 30
0.0
 11
14546.71028704182
 21
839.9412193686639
 31
0.0
  0
LINE
  5
57
100
AcDbEntity
  8
AXES
  6
CONTINUOUS
100
AcDbLine
 10
12937.42072083118
 20
691.4668731256934
 30
0.0
 11
12937.42072083118
 21
1238.830420746445
 31
0.0
  0
LINE
  5
58
100
AcDbEntity
  8
HEADLIGHTSTAND
  6
CONTINUOUS
100
AcDbLine
 10
12967.42072083118
 20
1032.664597217966
 30
0.0
 11
12967.42072083117
 21
1192.664597217992
 31
0.0
  0
LINE
  5
59
100
AcDbEntity
  8
HEADLIGHTSTAND
  6
CONTINUOUS
100
AcDbLine
 10
12907.42072083116
 20
1032.664597217966
 30
0.0
 11
12907.42072083119
 21
1192.664597217961
 31
0.0
  0
LINE
  5
5A
100
AcDbEntity
  8
HEADLIGHTSTAND
  6
CONTINUOUS
100
AcDbLine
 10
12902.42072083119
 20
952.8821896772774
 30
0.0
 11
12972.58209837258
 21
952.8821896772795
 31
0.0
  0
CIRCLE
  5
5B
100
AcDbEntity
  8
HEADLIGHTSTAND
  6
CONTINUOUS
100
AcDbCircle
 10
12937.42072083118
 20
921.8821896772784
 30
0.0
 40
9.999999999999998
  0
LINE
  5
5C
100
AcDbEntity
  8
HEADLIGHTSTAND
  6
CONTINUOUS
100
AcDbLine
 10
12903.42072083119
 20
1192.66459721798
 30
0.0
 11
12971.42072083118
 21
1192.664597218003
 31
0.0
  0
LINE
  5
5D
100
AcDbEntity
  8
HEADLIGHTSTAND
  6
CONTINUOUS
100
AcDbLine
 10
12907.42072083119
 20
884.8821896772838
 30
0.0
 11
12967.42072083117
 21
884.8821896772795
 31
0.0
  0
LINE
  5
5E
100
AcDbEntity
  8
HEADLIGHTSTAND
  6
CONTINUOUS
100
AcDbLine
 10
12837.42072083148
 20
704.882189677309
 30
0.0
 11
13037.42072083127
 21
704.8821896773077
 31
0.0
  0
LINE
  5
5F
100
AcDbEntity
  8
HEADLIGHTSTAND
  6
CONTINUOUS
100
AcDbLine
 10
12877.42072083114
 20
774.8821896773256
 30
0.0
 11
12997.42072083125
 21
774.8821896772484
 31
0.0
  0
LINE
  5
60
100
AcDbEntity
  8
HEADLIGHTSTAND
  6
CONTINUOUS
100
AcDbLine
 10
13037.42072083146
 20
704.8821896773083
 30
0.0
 11
13037.42072083128
 21
734.8821896772142
 31
0.0
  0
LINE
  5
61
100
AcDbEntity
  8
HEADLIGHTSTAND
  6
CONTINUOUS
100
AcDbLine
 10
12837.42072083148
 20
704.8821896773083
 30
0.0
 11
12837.42072083134
 21
734.8821896775303
 31
0.0
  0
CIRCLE
  5
62
100
AcDbEntity
  8
HEADLIGHTSTAND
  6
CONTINUOUS
100
AcDbCircle
 10
12877.42072083147
 20
754.8821896773056
 30
0.0
 40
3.999999999999999
  0
CIRCLE
  5
63
100
AcDbEntity
  8
HEADLIGHTSTAND
  6
CONTINUOUS
100
AcDbCircle
 10
12852.42072083147
 20
724.8821896773089
 30
0.0
 40
3.999999999999999
  0
CIRCLE
  5
64
100
AcDbEntity
  8
HEADLIGHTSTAND
  6
CONTINUOUS
100
AcDbCircle
 10
13022.42072083147
 20
724.8821896773089
 30
0.0
 40
3.999999999999999
  0
LINE
  5
65
100
AcDbEntity
  8
HEADLIGHTSTAND
  6
CONTINUOUS
100
AcDbLine
 10
12837.42072083134
 20
734.8821896773261
 30
0.0
 11
12877.42072083134
 21
774.8821896773264
 31
0.0
  0
LINE
  5
66
100
AcDbEntity
  8
HEADLIGHTSTAND
  6
CONTINUOUS
100
AcDbLine
 10
12997.4207208313
 20
774.8821896772484
 30
0.0
 11
13037.4207208313
 21
734.8821896772431
 31
0.0
  0
CIRCLE
  5
67
100
AcDbEntity
  8
HEADLIGHTSTAND
  6
CONTINUOUS
100
AcDbCircle
 10
12997.42072083147
 20
754.8821896773034
 30
0.0
 40
3.999999999999999
  0
LINE
  5
68
100
AcDbEntity
  8
AXES
  6
CONTINUOUS
100
AcDbLine
 10
12889.78687591936
 20
877.8821896772784
 30
0.0
 11
12991.93162440198
 21
877.8821896772784
 31
0.0
  0
LINE
  5
69
100
AcDbEntity
  8
AXES
  6
CONTINUOUS
100
AcDbLine
 10
12601.87110426424
 20
997.7616866894159
 30
0.0
 11
12601.87110426424
 21
1050.43417368027
 31
0.0
  0
LINE
  5
6A
100
AcDbEntity
  8
HEADLIGHTSTAND
  6
CONTINUOUS
100
AcDbLine
 10
12676.87110426405
 20
1028.664597217951
 30
0.0
 11
12676.87110426446
 21
1032.66459721795
 31
0.0
  0
LINE
  5
6B
100
AcDbEntity
  8
HEADLIGHTSTAND
  6
CONTINUOUS
100
AcDbLine
 10
12774.87110426422
 20
1177.664597217794
 30
0.0
 11
12774.87110426422
 21
1192.664597217795
 31
0.0
  0
LINE
  5
6C
100
AcDbEntity
  8
HEADLIGHTSTAND
  6
CONTINUOUS
100
AcDbLine
 10
12774.87110426422
 20
1192.664597217795
 30
0.0
 11
12594.87110426422
 21
1192.664597217795
 31
0.0
  0
LINE
  5
6D
100
AcDbEntity
  8
HEADLIGHTSTAND
  6
CONTINUOUS
100
AcDbLine
 10
12564.22644332352
 20
1032.664597217948
 30
0.0
 11
12724.22644332338
 21
1192.664597217796
 31
0.0
  0
LINE
  5
6E
100
AcDbEntity
  8
HEADLIGHTSTAND
  6
CONTINUOUS
100
AcDbLine
 10
12528.87110426418
 20
1032.664597217948
 30
0.0
 11
12688.87110426405
 21
1192.664597217796
 31
0.0
  0
LINE
  5
6F
100
AcDbEntity
  8
AXES
  6
CONTINUOUS
100
AcDbLine
 10
12994.53248460036
 20
921.8821896772784
 30
0.0
 11
12878.39962399093
 21
921.8821896772784
 31
0.0
  0
LINE
  5
70
100
AcDbEntity
  8
AXES
  6
CONTINUOUS
100
AcDbLine
 10
12994.53248460036
 20
833.8821896772785
 30
0.0
 11
12878.39962399093
 21
833.8821896772785
 31
0.0
  0
LINE
  5
71
100
AcDbEntity
  8
AXES
  6
CONTINUOUS
100
AcDbLine
 10
12645.87110426424
 20
1050.299676949855
 30
0.0
 11
12645.87110426424
 21
1004.267673454008
 31
0.0
  0
LINE
  5
72
100
AcDbEntity
  8
AXES
  6
CONTINUOUS
100
AcDbLine
 10
12557.87110426424
 20
1050.299676949855
 30
0.0
 11
12557.87110426424
 21
1005.429002060102
 31
0.0
  0
LINE
  5
73
100
AcDbEntity
  8
HEADLIGHTSTAND
  6
CONTINUOUS
100
AcDbLine
 10
12903.42072083118
 20
1032.664597217966
 30
0.0
 11
12903.42072083119
 21
1192.664597217961
 31
0.0
  0
LINE
  5
74
100
AcDbEntity
  8
HEADLIGHTSTAND
  6
CONTINUOUS
100
AcDbLine
 10
12971.4207208312
 20
1032.664597217966
 30
0.0
 11
12971.42072083117
 21
1192.664597217992
 31
0.0
  0
LINE
  5
75
100
AcDbEntity
  8
HEADLIGHTSTAND
  6
CONTINUOUS
100
AcDbLine
 10
12526.87110426438
 20
1032.664597217948
 30
0.0
 11
12526.87110426389
 21
1028.664597217954
 31
0.0
  0
LINE
  5
76
100
AcDbEntity
  8
HEADLIGHTSTAND
  6
CONTINUOUS
100
AcDbLine
 10
12903.42072083119
 20
907.2498406103978
 30
0.0
 11
12907.42072083119
 21
907.2498406104539
 31
0.0
  0
LINE
  5
77
100
AcDbEntity
  8
HEADLIGHTSTAND
  6
CONTINUOUS
100
AcDbLine
 10
12967.42072083115
 20
907.2498406112197
 30
0.0
 11
12971.42072083112
 21
907.2498406112043
 31
0.0
  0
LINE
  5
78
100
AcDbEntity
  8
ARMOUR
  6
CONTINUOUS
100
AcDbLine
 10
14292.11411798413
 20
375.5299313432311
 30
0.0
 11
14302.53300864414
 21
316.4414661624988
 31
0.0
  0
LINE
  5
79
100
AcDbEntity
  8
AXES
  6
CONTINUOUS
100
AcDbLine
 10
14371.0782689095
 20
405.6799278995462
 30
0.0
 11
14387.00976242779
 21
315.3279383499087
 31
0.0
  0
LINE
  5
7A
100
AcDbEntity
  8
ARMOUR
  6
DOT
100
AcDbLine
 10
14383.70123901426
 20
391.6792118662551
 30
0.0
 11
14394.12012967427
 21
332.590746685524
 31
0.0
  0
LINE
  5
7B
100
AcDbEntity
  8
ARMOUR
  6
DOT
100
AcDbLine
 10
14364.00508395402
 20
388.2062483129166
 30
0.0
 11
14374.42397461403
 21
329.1177831321877
 31
0.0
  0
LINE
  5
7C
100
AcDbEntity
  8
HEADLIGHTSTAND
  6
CONTINUOUS
100
AcDbLine
 10
12911.42072083115
 20
1032.664597217966
 30
0.0
 11
12911.42072083119
 21
1188.664597217987
 31
0.0
  0
LINE
  5
7D
100
AcDbEntity
  8
HEADLIGHTSTAND
  6
CONTINUOUS
100
AcDbLine
 10
12963.42072083119
 20
1032.664597217966
 30
0.0
 11
12963.42072083118
 21
1188.664597218008
 31
0.0
  0
LINE
  5
7E
100
AcDbEntity
  8
HEADLIGHTSTAND
  6
CONTINUOUS
100
AcDbLine
 10
12907.42072083119
 20
1177.664597218019
 30
0.0
 11
12911.42072083119
 21
1177.664597218057
 31
0.0
  0
LINE
  5
7F
100
AcDbEntity
  8
HEADLIGHTSTAND
  6
CONTINUOUS
100
AcDbLine
 10
12963.42072083118
 20
1177.664597218011
 30
0.0
 11
12967.42072083117
 21
1177.664597217841
 31
0.0
  0
LINE
  5
80
100
AcDbEntity
  8
HEADLIGHTSTAND
  6
CONTINUOUS
100
AcDbLine
 10
12774.87110426422
 20
1177.664597217795
 30
0.0
 11
12709.22644332337
 21
1177.664597217801
 31
0.0
  0
LINE
  5
81
100
AcDbEntity
  8
HEADLIGHTSTAND
  6
CONTINUOUS
100
AcDbLine
 10
12673.87110426405
 20
1177.664597217791
 30
0.0
 11
12609.87110426424
 21
1177.664597217794
 31
0.0
  0
LINE
  5
82
100
AcDbEntity
  8
HEADLIGHTSTAND
  6
CONTINUOUS
100
AcDbLine
 10
12609.87110426424
 20
1032.664597217949
 30
0.0
 11
12609.87110426423
 21
1078.309258158669
 31
0.0
  0
LINE
  5
83
100
AcDbEntity
  8
HEADLIGHTSTAND
  6
CONTINUOUS
100
AcDbLine
 10
12609.87110426425
 20
1113.664597218006
 30
0.0
 11
12609.87110426424
 21
1177.664597217793
 31
0.0
  0
LINE
  5
84
100
AcDbEntity
  8
HEADLIGHTSTAND
  6
CONTINUOUS
100
AcDbLine
 10
12594.87110426418
 20
1032.664597217949
 30
0.0
 11
12594.8711042642
 21
1063.309258158642
 31
0.0
  0
LINE
  5
85
100
AcDbEntity
  8
HEADLIGHTSTAND
  6
CONTINUOUS
100
AcDbLine
 10
12594.87110426423
 20
1098.664597217983
 30
0.0
 11
12594.87110426422
 21
1192.664597217795
 31
0.0
  0
LINE
  5
86
100
AcDbEntity
  8
HEADLIGHTSTAND
  6
CONTINUOUS
100
AcDbLine
 10
12837.42072083128
 20
1192.664597217992
 30
0.0
 11
13037.42072083108
 21
1192.664597217991
 31
0.0
  0
LINE
  5
87
100
AcDbEntity
  8
HEADLIGHTSTAND
  6
CONTINUOUS
100
AcDbLine
 10
12837.42072083128
 20
1194.664597217992
 30
0.0
 11
13037.42072083108
 21
1194.664597217991
 31
0.0
  0
LINE
  5
88
100
AcDbEntity
  8
HEADLIGHTSTAND
  6
CONTINUOUS
100
AcDbLine
 10
12939.42072083119
 20
1032.664597217966
 30
0.0
 11
12939.42072083118
 21
1188.664597218013
 31
0.0
  0
LINE
  5
89
100
AcDbEntity
  8
HEADLIGHTSTAND
  6
CONTINUOUS
100
AcDbLine
 10
12935.42072083119
 20
1032.664597217966
 30
0.0
 11
12935.42072083119
 21
1188.664597218011
 31
0.0
  0
LINE
  5
8A
100
AcDbEntity
  8
HEADLIGHTSTAND
  6
CONTINUOUS
100
AcDbLine
 10
12935.42072083119
 20
1177.664597218009
 30
0.0
 11
12939.42072083118
 21
1177.664597217839
 31
0.0
  0
LINE
  5
8B
100
AcDbEntity
  8
HEADLIGHTSTAND
100
AcDbLine
 10
13037.42072083108
 20
1192.664597217991
 30
0.0
 11
13037.42072083108
 21
1194.664597217991
 31
0.0
  0
LINE
  5
8C
100
AcDbEntity
  8
HEADLIGHTSTAND
100
AcDbLine
 10
12837.42072083128
 20
1194.664597217992
 30
0.0
 11
12837.42072083128
 21
1192.664597217992
 31
0.0
  0
LINE
  5
8D
100
AcDbEntity
  8
HEADLIGHTSTAND
  6
CONTINUOUS
100
AcDbLine
 10
12911.42072083118
 20
1188.664597217987
 30
0.0
 11
12935.42072083118
 21
1188.66459721798
 31
0.0
  0
LINE
  5
8E
100
AcDbEntity
  8
HEADLIGHTSTAND
  6
CONTINUOUS
100
AcDbLine
 10
12939.42072083117
 20
1188.664597218078
 30
0.0
 11
12963.42072083118
 21
1188.664597218006
 31
0.0
  0
LINE
  5
8F
100
AcDbEntity
  8
HEADLIGHTSTAND
100
AcDbLine
 10
12704.87110426442
 20
1194.664597217796
 30
0.0
 11
12704.87110426442
 21
1192.664597217796
 31
0.0
  0
LINE
  5
90
100
AcDbEntity
  8
HEADLIGHTSTAND
  6
CONTINUOUS
100
AcDbLine
 10
12704.87110426494
 20
1194.664597217786
 30
0.0
 11
12774.87110426422
 21
1194.664597217795
 31
0.0
  0
LINE
  5
91
100
AcDbEntity
  8
HEADLIGHTSTAND
100
AcDbLine
 10
12774.87110426422
 20
1192.664597217795
 30
0.0
 11
12774.87110426422
 21
1194.664597217795
 31
0.0
  0
LINE
  5
92
100
AcDbEntity
  8
HEADLIGHTSTAND
  6
CONTINUOUS
100
AcDbLine
 10
12903.42072083118
 20
774.8821896773027
 30
0.0
 11
12903.42072083121
 21
907.2498406103218
 31
0.0
  0
LINE
  5
93
100
AcDbEntity
  8
HEADLIGHTSTAND
  6
CONTINUOUS
100
AcDbLine
 10
12971.42072083119
 20
774.8821896772589
 30
0.0
 11
12971.42072083118
 21
907.249840610935
 31
0.0
  0
LINE
  5
94
100
AcDbEntity
  8
HEADLIGHTSTAND
  6
CONTINUOUS
100
AcDbLine
 10
12967.42072083118
 20
774.8821896772616
 30
0.0
 11
12967.42072083115
 21
907.2498406109504
 31
0.0
  0
LINE
  5
95
100
AcDbEntity
  8
HEADLIGHTSTAND
  6
CONTINUOUS
100
AcDbLine
 10
12907.42072083117
 20
774.8821896773002
 30
0.0
 11
12907.42072083119
 21
907.2498406104539
 31
0.0
  0
LINE
  5
96
100
AcDbEntity
  8
HEADLIGHTSTAND
  6
CONTINUOUS
100
AcDbLine
 10
12902.46868711477
 20
802.8821896771875
 30
0.0
 11
12903.42072083119
 21
802.882189677545
 31
0.0
  0
LINE
  5
97
100
AcDbEntity
  8
HEADLIGHTSTAND
  6
CONTINUOUS
100
AcDbLine
 10
12971.42072083118
 20
802.8821896778698
 30
0.0
 11
12972.58209837258
 21
802.8821896775484
 31
0.0
  0
LINE
  5
98
100
AcDbEntity
  8
HEADLIGHTSTAND
100
AcDbLine
 10
12902.46868711477
 20
952.8821896772727
 30
0.0
 11
12902.46868711477
 21
802.8821896771876
 31
0.0
  0
LINE
  5
99
100
AcDbEntity
  8
HEADLIGHTSTAND
100
AcDbLine
 10
12972.3727545476
 20
952.8821896772795
 30
0.0
 11
12972.3727545476
 21
802.8821896775474
 31
0.0
  0
LINE
  5
9A
100
AcDbEntity
  8
HEADLIGHTSTAND
100
AcDbLine
 10
12972.58209837258
 20
952.8821896772795
 30
0.0
 11
12972.58209837257
 21
802.8821896775484
 31
0.0
  0
LWPOLYLINE
  5
9B
100
AcDbEntity
  8
HEADLIGHTSTAND
100
AcDbPolyline
 90
        4
 70
     1
 43
0.0
 10
12902.42072083118
 20
1028.664597217955
 10
12972.42072083118
 20
1028.664597217955
 10
12972.42072083118
 20
1032.664597217955
 10
12902.42072083118
 20
1032.664597217955
  0
LINE
  5
9C
100
AcDbEntity
  8
HEADLIGHTSTAND
100
AcDbLine
 10
12676.8711042642
 20
1028.664597217953
 30
0.0
 11
12526.87110426411
 21
1028.664597217955
 31
0.0
  0
LINE
  5
9D
100
AcDbEntity
  8
HEADLIGHTSTAND
100
AcDbLine
 10
12676.87110426446
 20
1032.664597217958
 30
0.0
 11
12526.87110426438
 21
1032.664597217955
 31
0.0
  0
LINE
  5
9E
100
AcDbEntity
  8
HEADLIGHTSTAND
  6
CONTINUOUS
100
AcDbLine
 10
14402.62455573884
 20
399.7354506396938
 30
0.0
 11
14392.71742724134
 21
559.4284335943065
 31
0.0
  0
LINE
  5
9F
100
AcDbEntity
  8
HEADLIGHTSTAND
  6
CONTINUOUS
100
AcDbLine
 10
14342.73968713084
 20
396.0202774531334
 30
0.0
 11
14332.83255863338
 21
555.7132604077188
 31
0.0
  0
LINE
  5
A0
100
AcDbEntity
  8
HEADLIGHTSTAND
  6
CONTINUOUS
100
AcDbLine
 10
14328.84023405952
 20
555.4655821952997
 30
0.0
 11
14396.7097518152
 21
559.6761118067542
 31
0.0
  0
LINE
  5
A1
100
AcDbEntity
  8
HEADLIGHTSTAND
  6
CONTINUOUS
100
AcDbLine
 10
14338.74736255699
 20
395.7725992406977
 30
0.0
 11
14328.84023405952
 21
555.4655821952816
 31
0.0
  0
LINE
  5
A2
100
AcDbEntity
  8
HEADLIGHTSTAND
  6
CONTINUOUS
100
AcDbLine
 10
14406.61688031271
 20
399.9831288521313
 30
0.0
 11
14396.7097518152
 21
559.6761118067437
 31
0.0
  0
LINE
  5
A3
100
AcDbEntity
  8
HEADLIGHTSTAND
  6
CONTINUOUS
100
AcDbLine
 10
14346.7320117047
 20
396.2679556655706
 30
0.0
 11
14337.07256141969
 21
551.9686140463165
 31
0.0
  0
LINE
  5
A4
100
AcDbEntity
  8
HEADLIGHTSTAND
  6
CONTINUOUS
100
AcDbLine
 10
14398.63223116498
 20
399.4877724272566
 30
0.0
 11
14388.97278087991
 21
555.1884308080206
 31
0.0
  0
LINE
  5
A5
100
AcDbEntity
  8
HEADLIGHTSTAND
  6
CONTINUOUS
100
AcDbLine
 10
14333.76135193002
 20
540.7420432557833
 30
0.0
 11
14337.75367650388
 21
540.9897214682581
 31
0.0
  0
LINE
  5
A6
100
AcDbEntity
  8
HEADLIGHTSTAND
  6
CONTINUOUS
100
AcDbLine
 10
14389.65389596412
 20
544.2095382298955
 30
0.0
 11
14393.64622053799
 21
544.4572164421629
 31
0.0
  0
LINE
  5
A7
100
AcDbEntity
  8
HEADLIGHTSTAND
  6
CONTINUOUS
100
AcDbLine
 10
14262.96687859085
 20
551.3788916901035
 30
0.0
 11
14462.58310728387
 21
563.7628023119498
 31
0.0
  0
LINE
  5
A8
100
AcDbEntity
  8
HEADLIGHTSTAND
  6
CONTINUOUS
100
AcDbLine
 10
14262.84303948462
 20
553.3750539770361
 30
0.0
 11
14462.45926817766
 21
565.7589645988823
 31
0.0
  0
LINE
  5
A9
100
AcDbEntity
  8
HEADLIGHTSTAND
  6
CONTINUOUS
100
AcDbLine
 10
14374.67828372179
 20
398.0017031526333
 30
0.0
 11
14365.01883343673
 21
553.7023615334025
 31
0.0
  0
LINE
  5
AA
100
AcDbEntity
  8
HEADLIGHTSTAND
  6
CONTINUOUS
100
AcDbLine
 10
14370.68595914793
 20
397.7540249401961
 30
0.0
 11
14361.02650886287
 21
553.4546833209638
 31
0.0
  0
LINE
  5
AB
100
AcDbEntity
  8
HEADLIGHTSTAND
  6
CONTINUOUS
100
AcDbLine
 10
14361.70762394707
 20
542.4757907428338
 30
0.0
 11
14365.69994852094
 21
542.7234689551011
 31
0.0
  0
LINE
  5
AC
100
AcDbEntity
  8
HEADLIGHTSTAND
100
AcDbLine
 10
14462.58310728387
 20
563.7628023119498
 30
0.0
 11
14462.45926817766
 21
565.7589645988823
 31
0.0
  0
LINE
  5
AD
100
AcDbEntity
  8
HEADLIGHTSTAND
100
AcDbLine
 10
14262.84303948462
 20
553.3750539770361
 30
0.0
 11
14262.96687859085
 21
551.3788916901035
 31
0.0
  0
LINE
  5
AE
100
AcDbEntity
  8
HEADLIGHTSTAND
  6
CONTINUOUS
100
AcDbLine
 10
14337.07256141968
 20
551.9686140463159
 30
0.0
 11
14361.02650886287
 21
553.4546833209327
 31
0.0
  0
LINE
  5
AF
100
AcDbEntity
  8
HEADLIGHTSTAND
  6
CONTINUOUS
100
AcDbLine
 10
14365.01883343671
 20
553.7023615334668
 30
0.0
 11
14388.97278087991
 21
555.1884308080184
 31
0.0
  0
LWPOLYLINE
  5
B0
100
AcDbEntity
  8
HEADLIGHTSTAND
100
AcDbPolyline
 90
        4
 70
     1
 43
0.0
 10
14337.99695962597
 20
391.7183551137129
 10
14407.86263966861
 20
396.0527238313641
 10
14407.61496145617
 20
400.045048405229
 10
14337.74928141354
 20
395.7106796875777
  0
LWPOLYLINE
  5
B1
100
AcDbEntity
  8
HEADLIGHTSTAND
100
AcDbPolyline
 90
        4
 70
     1
 43
0.0
 10
14339.99312191291
 20
391.8421942199315
 10
14354.9643390649
 20
392.7709875165711
 10
14355.15009772423
 20
389.7767440861727
 10
14340.17888057224
 20
388.8479507895329
  0
LWPOLYLINE
  5
B2
100
AcDbEntity
  8
HEADLIGHTSTAND
100
AcDbPolyline
 90
        4
 70
     1
 43
0.0
 10
14340.17888057224
 20
388.8479507895329
 10
14355.15009772423
 20
389.7767440861727
 10
14355.33585638355
 20
386.7825006557742
 10
14340.36463923156
 20
385.8537073591346
  0
TEXT
  5
B4
100
AcDbEntity
  8
COMMENTS
  6
CONTINUOUS
100
AcDbText
 10
14271.60120188722
 20
226.1239274612462
 30
0.0
 40
15.7334857092066
  1
I'm guessing that shims were
 41
0.6
  7
ARIAL
 11
14271.60120188722
 21
226.1239274612462
 31
0.0
100
AcDbText
 73
     1
  0
TEXT
  5
B5
100
AcDbEntity
  8
COMMENTS
  6
CONTINUOUS
100
AcDbText
 10
14271.60120188722
 20
202.5236988974362
 30
-23.60022856380989
 40
15.7334857092066
  1
used to achieve the observed angle.
 41
0.6
  7
ARIAL
 11
14271.60120188722
 21
202.5236988974362
 31
-23.60022856380989
100
AcDbText
 73
     1
  0
LINE
  5
B6
100
AcDbEntity
  8
HEADLIGHTSTAND
100
AcDbLine
 10
14023.83161458503
 20
563.2821824745101
 30
0.0
 11
14023.83161458503
 21
555.8518361014087
 31
0.0
  0
LINE
  5
B7
100
AcDbEntity
  8
HEADLIGHTSTAND
100
AcDbLine
 10
13953.83161458575
 20
565.7589645988846
 30
0.0
 11
13953.83161458578
 21
551.378891690111
 31
0.0
  0
LINE
  5
B8
100
AcDbEntity
  8
HEADLIGHTSTAND
100
AcDbLine
 10
13993.83161458503
 20
565.7589645988846
 30
0.0
 11
13953.83161458575
 21
565.7589645988822
 31
0.0
  0
LINE
  5
B9
100
AcDbEntity
  8
HEADLIGHTSTAND
100
AcDbLine
 10
13993.83161458503
 20
553.3750539770345
 30
0.0
 11
13953.83161458578
 21
553.3750539770323
 31
0.0
  0
LINE
  5
BA
100
AcDbEntity
  8
HEADLIGHTSTAND
100
AcDbLine
 10
14023.83161458502
 20
563.2821824745101
 30
0.0
 11
13993.83161458503
 21
565.7589645988846
 31
0.0
  0
LINE
  5
BB
100
AcDbEntity
  8
HEADLIGHTSTAND
100
AcDbLine
 10
14023.83161458502
 20
555.8518361014087
 30
0.0
 11
13993.83161458503
 21
553.3750539770345
 31
0.0
  0
LINE
  5
BC
100
AcDbEntity
  8
HEADLIGHTSTAND
100
AcDbLine
 10
13993.83161458501
 20
551.3788916901105
 30
0.0
 11
13953.83161458578
 21
551.3788916901046
 31
0.0
  0
LINE
  5
BD
100
AcDbEntity
  8
HEADLIGHTSTAND
100
AcDbLine
 10
13993.83161458503
 20
553.3750539770345
 30
0.0
 11
13993.83161458503
 21
551.3788916901106
 31
0.0
  0
LINE
  5
BE
100
AcDbEntity
  8
HEADLIGHTSTAND
100
AcDbLine
 10
14023.83161458502
 20
555.8518361014087
 30
0.0
 11
14023.83161458502
 21
553.8556738144847
 31
0.0
  0
LINE
  5
BF
100
AcDbEntity
  8
HEADLIGHTSTAND
100
AcDbLine
 10
14023.83161458502
 20
553.8556738144847
 30
0.0
 11
13993.83161458503
 21
551.3788916901106
 31
0.0
  0
LINE
  5
C0
100
AcDbEntity
  8
HEADLIGHTSTAND
100
AcDbLine
 10
14023.83161458503
 20
553.8556738144869
 30
0.0
 11
14023.83161458503
 21
540.7420432557863
 31
0.0
  0
LINE
  5
C1
100
AcDbEntity
  8
HEADLIGHTSTAND
100
AcDbLine
 10
13953.83161458571
 20
555.7132604077184
 30
0.0
 11
13843.83161458503
 21
555.7132604077187
 31
0.0
  0
LINE
  5
C2
100
AcDbEntity
  8
HEADLIGHTSTAND
100
AcDbLine
 10
13858.83161458508
 20
396.0202774531352
 30
0.0
 11
13843.83161458504
 21
396.0202774531334
 31
0.0
  0
LINE
  5
C3
100
AcDbEntity
  8
HEADLIGHTSTAND
100
AcDbLine
 10
13925.83161458502
 20
391.7183551137125
 30
0.0
 11
13775.83161458492
 21
391.7183551137128
 31
0.0
  0
LINE
  5
C4
100
AcDbEntity
  8
HEADLIGHTSTAND
100
AcDbLine
 10
13775.83161458492
 20
400.0450484052421
 30
0.0
 11
13775.83161458492
 21
391.718355113713
 31
0.0
  0
LINE
  5
C5
100
AcDbEntity
  8
HEADLIGHTSTAND
100
AcDbLine
 10
13925.83161458502
 20
395.7106796875772
 30
0.0
 11
13775.83161458492
 21
395.7106796875777
 31
0.0
  0
LINE
  5
C6
100
AcDbEntity
  8
HEADLIGHTSTAND
100
AcDbLine
 10
13925.83161458502
 20
400.0450484052278
 30
0.0
 11
13858.83161458508
 21
400.0450484052276
 31
0.0
  0
LINE
  5
C7
100
AcDbEntity
  8
HEADLIGHTSTAND
100
AcDbLine
 10
13925.83161458502
 20
400.0450484052296
 30
0.0
 11
13925.83161458502
 21
391.7183551137125
 31
0.0
  0
LINE
  5
C8
100
AcDbEntity
  8
HEADLIGHTSTAND
100
AcDbLine
 10
13953.83161458571
 20
559.4284335943086
 30
0.0
 11
13843.83161458503
 21
559.4284335943065
 31
0.0
  0
LINE
  5
C9
100
AcDbEntity
  8
HEADLIGHTSTAND
100
AcDbLine
 10
13953.83161458572
 20
555.4655821952783
 30
0.0
 11
13937.83161458486
 21
555.4655821952783
 31
0.0
  0
LINE
  5
CA
100
AcDbEntity
  8
HEADLIGHTSTAND
100
AcDbLine
 10
13937.83161458486
 20
555.4655821952783
 30
0.0
 11
13777.83161458499
 21
395.7725992406983
 31
0.0
  0
LINE
  5
CB
100
AcDbEntity
  8
HEADLIGHTSTAND
100
AcDbLine
 10
13969.09240629008
 20
551.3788916901148
 30
0.0
 11
13813.18695364433
 21
395.7725992406987
 31
0.0
  0
LINE
  5
CC
100
AcDbEntity
  8
HEADLIGHTSTAND
  6
CONTINUOUS
100
AcDbLine
 10
13858.83161458508
 20
396.0202774531351
 30
0.0
 11
13858.83161458506
 21
441.3296746255799
 31
0.0
  0
LINE
  5
CD
100
AcDbEntity
  8
HEADLIGHTSTAND
  6
CONTINUOUS
100
AcDbLine
 10
13858.83161458504
 20
476.8648500740118
 30
0.0
 11
13858.83161458504
 21
540.7420432557757
 31
0.0
  0
LINE
  5
CE
100
AcDbEntity
  8
HEADLIGHTSTAND
  6
CONTINUOUS
100
AcDbLine
 10
13843.83161458504
 20
396.0202774531352
 30
0.0
 11
13843.83161458505
 21
426.358457473573
 31
0.0
  0
LINE
  5
CF
100
AcDbEntity
  8
HEADLIGHTSTAND
  6
CONTINUOUS
100
AcDbLine
 10
13843.83161458504
 20
461.8936329220016
 30
0.0
 11
13843.83161458503
 21
559.4284335943085
 31
0.0
  0
LINE
  5
D0
100
AcDbEntity
  8
HEADLIGHTSTAND
100
AcDbLine
 10
13937.83161458486
 20
555.4655821952783
 30
0.0
 11
13937.83161458486
 21
555.7132604077183
 31
0.0
  0
LINE
  5
D1
100
AcDbEntity
  8
HEADLIGHTSTAND
100
AcDbLine
 10
13937.83161458486
 20
555.7132604077183
 30
0.0
 11
13777.83161458499
 21
396.0202774531382
 31
0.0
  0
LINE
  5
D2
100
AcDbEntity
  8
HEADLIGHTSTAND
100
AcDbLine
 10
14023.83161458503
 20
540.7420432557863
 30
0.0
 11
13958.43510802937
 21
540.7420432557883
 31
0.0
  0
LINE
  5
D3
100
AcDbEntity
  8
HEADLIGHTSTAND
100
AcDbLine
 10
13922.83161458493
 20
540.7420432557814
 30
0.0
 11
13858.83161458503
 21
540.7420432557772
 31
0.0
  0
LINE
  5
D4
100
AcDbEntity
  8
HEADLIGHTSTAND
100
AcDbLine
 10
13843.83161458505
 20
400.0450484052366
 30
0.0
 11
13817.4676167873
 21
400.0450484052301
 31
0.0
  0
LINE
  5
D5
100
AcDbEntity
  8
HEADLIGHTSTAND
100
AcDbLine
 10
13777.89365318109
 20
400.0450484051148
 30
0.0
 11
13775.83161458492
 21
400.0450484052288
 31
0.0
  0
LINE
  5
D6
100
AcDbEntity
  8
HEADLIGHTSTAND
100
AcDbLine
 10
13777.83161458499
 20
396.0202774531382
 30
0.0
 11
13777.83161458499
 21
395.7725992406983
 31
0.0
  0
LINE
  5
D7
100
AcDbEntity
  8
HEADLIGHTSTAND
100
AcDbLine
 10
13777.83161458499
 20
395.7725992406983
 30
0.0
 11
13813.18695364433
 21
395.7725992406983
 31
0.0
  0
LINE
  5
D8
100
AcDbEntity
  8
HEADLIGHTSTAND
100
AcDbLine
 10
13937.83161458486
 20
559.4284335943093
 30
0.0
 11
13937.83161458486
 21
559.6761118067493
 31
0.0
  0
LINE
  5
D9
100
AcDbEntity
  8
HEADLIGHTSTAND
100
AcDbLine
 10
13937.83161458486
 20
559.6761118067493
 30
0.0
 11
13953.83161458571
 21
559.6761118067493
 31
0.0
  0
LINE
  5
DA
100
AcDbEntity
  8
HEADLIGHTSTAND
100
AcDbLine
 10
13937.83161458486
 20
559.6761118067493
 30
0.0
 11
13937.58346019977
 21
559.4284335943093
 31
0.0
  0
LINE
  5
DB
100
AcDbEntity
  8
HEADLIGHTSTAND
100
AcDbLine
 10
13919.10929880839
 20
540.7420432557787
 30
0.0
 11
13858.83161458505
 21
480.5800232606137
 31
0.0
  0
LINE
  5
DC
100
AcDbEntity
  8
HEADLIGHTSTAND
100
AcDbLine
 10
13843.83161458503
 20
465.6088061085807
 30
0.0
 11
13777.83161458499
 21
399.7354506397293
 31
0.0
  0
LINE
  5
DD
100
AcDbEntity
  8
HEADLIGHTSTAND
100
AcDbLine
 10
13918.8611444233
 20
540.7420432557786
 30
0.0
 11
13858.83161458505
 21
480.827701473049
 31
0.0
  0
LINE
  5
DE
100
AcDbEntity
  8
HEADLIGHTSTAND
100
AcDbLine
 10
13843.83161458503
 20
465.8564843210058
 30
0.0
 11
13777.83161458499
 21
399.9831288521693
 31
0.0
  0
LINE
  5
DF
100
AcDbEntity
  8
HEADLIGHTSTAND
100
AcDbLine
 10
13777.83161458499
 20
399.9831288521693
 30
0.0
 11
13777.83161458499
 21
399.7354506397293
 31
0.0
  0
LINE
  5
E0
100
AcDbEntity
  8
HEADLIGHTSTAND
100
AcDbLine
 10
13777.83161458499
 20
399.7354506397293
 30
0.0
 11
13781.55393036138
 21
399.735450639588
 31
0.0
  0
LINE
  5
E1
100
AcDbEntity
  8
HEADLIGHTSTAND
100
AcDbLine
 10
14262.84303948463
 20
1071.566427379853
 30
0.0
 11
14462.58310728389
 21
1071.56642737985
 31
0.0
  0
LINE
  5
E2
100
AcDbEntity
  8
HEADLIGHTSTAND
100
AcDbLine
 10
14262.84303948463
 20
1071.566427379853
 30
0.0
 11
14262.84303948463
 21
1101.566427379869
 31
0.0
  0
LINE
  5
E3
100
AcDbEntity
  8
HEADLIGHTSTAND
100
AcDbLine
 10
14462.45926817765
 20
1071.566427379853
 30
0.0
 11
14462.45926817764
 21
1101.566427379841
 31
0.0
  0
LINE
  5
E4
100
AcDbEntity
  8
HEADLIGHTSTAND
100
AcDbLine
 10
14302.76628522325
 20
1141.566427379122
 30
0.0
 11
14422.65986154525
 21
1141.566427379116
 31
0.0
  0
LINE
  5
E5
100
AcDbEntity
  8
HEADLIGHTSTAND
100
AcDbLine
 10
14422.536022439
 20
1141.566427379125
 30
0.0
 11
14462.45926817765
 21
1101.566427379853
 31
0.0
  0
LINE
  5
E6
100
AcDbEntity
  8
HEADLIGHTSTAND
100
AcDbLine
 10
14302.76628522327
 20
1141.566427379125
 30
0.0
 11
14262.84303948463
 21
1101.566427379853
 31
0.0
  0
LINE
  5
E7
100
AcDbEntity
  8
HEADLIGHTSTAND
100
AcDbLine
 10
14422.65986154524
 20
1141.566427379125
 30
0.0
 11
14462.58310728388
 21
1101.566427379878
 31
0.0
  0
LINE
  5
E8
100
AcDbEntity
  8
HEADLIGHTSTAND
100
AcDbLine
 10
14462.58310728389
 20
1071.566427379853
 30
0.0
 11
14462.58310728388
 21
1101.566427379841
 31
0.0
  0
LINE
  5
E9
100
AcDbEntity
  8
HEADLIGHTSTAND
100
AcDbLine
 10
14462.58310728389
 20
1101.566427379853
 30
0.0
 11
14462.45926817765
 21
1101.566427379853
 31
0.0
  0
CIRCLE
  5
EA
100
AcDbEntity
  8
HEADLIGHTSTAND
  6
CONTINUOUS
100
AcDbCircle
 10
14447.48805102567
 20
1091.566427379849
 30
0.0
 40
3.999999999999999
  0
CIRCLE
  5
EB
100
AcDbEntity
  8
HEADLIGHTSTAND
  6
CONTINUOUS
100
AcDbCircle
 10
14422.53602243901
 20
1121.566427379851
 30
0.0
 40
3.999999999999999
  0
CIRCLE
  5
EC
100
AcDbEntity
  8
HEADLIGHTSTAND
  6
CONTINUOUS
100
AcDbCircle
 10
14277.93809574283
 20
1091.566427379849
 30
0.0
 40
3.999999999999999
  0
CIRCLE
  5
ED
100
AcDbEntity
  8
HEADLIGHTSTAND
  6
CONTINUOUS
100
AcDbCircle
 10
14302.89012432949
 20
1121.566427379851
 30
0.0
 40
3.999999999999999
  0
LINE
  5
EE
100
AcDbEntity
  8
HEADLIGHTSTAND
100
AcDbLine
 10
14332.83255863339
 20
1141.566427379121
 30
0.0
 11
14332.83255863339
 21
1251.566427379847
 31
0.0
  0
LINE
  5
EF
100
AcDbEntity
  8
HEADLIGHTSTAND
100
AcDbLine
 10
14392.71742724133
 20
1141.566427379118
 30
0.0
 11
14392.71742724134
 21
1251.566427379847
 31
0.0
  0
LINE
  5
F0
100
AcDbEntity
  8
HEADLIGHTSTAND
100
AcDbLine
 10
14332.83255863339
 20
1251.566427379847
 30
0.0
 11
14398.53786523362
 21
1251.566427379837
 31
0.0
  0
LINE
  5
F1
100
AcDbEntity
  8
HEADLIGHTSTAND
100
AcDbLine
 10
14393.64622053798
 20
1172.566427380205
 30
0.0
 11
14393.64622053798
 21
1236.566427379818
 31
0.0
  0
LINE
  5
F2
100
AcDbEntity
  8
HEADLIGHTSTAND
100
AcDbLine
 10
14393.64622053798
 20
1236.56642737983
 30
0.0
 11
14397.60907193698
 21
1236.566427379814
 31
0.0
  0
LINE
  5
F3
100
AcDbEntity
  8
HEADLIGHTSTAND
100
AcDbLine
 10
14406.61688031272
 20
1282.211088320551
 30
0.0
 11
14397.90822575997
 21
1141.566427379118
 31
0.0
  0
LINE
  5
F4
100
AcDbEntity
  8
HEADLIGHTSTAND
100
AcDbLine
 10
14406.61688031272
 20
1317.566427379891
 30
0.0
 11
14396.70975181518
 21
1157.566427379959
 31
0.0
  0
LINE
  5
F5
100
AcDbEntity
  8
HEADLIGHTSTAND
100
AcDbLine
 10
14406.61688031272
 20
1317.566427379891
 30
0.0
 11
14406.61688031272
 21
1282.211088320551
 31
0.0
  0
LINE
  5
F6
100
AcDbEntity
  8
HEADLIGHTSTAND
100
AcDbLine
 10
14402.62455573886
 20
1317.566427379891
 30
0.0
 11
14392.71742724132
 21
1157.566427379951
 31
0.0
  0
LINE
  5
F7
100
AcDbEntity
  8
HEADLIGHTSTAND
100
AcDbLine
 10
14406.61688031272
 20
1317.566427379891
 30
0.0
 11
14402.62455573886
 21
1317.566427379891
 31
0.0
  0
LINE
  5
F8
100
AcDbEntity
  8
HEADLIGHTSTAND
100
AcDbLine
 10
14342.73968713086
 20
1282.211088320551
 30
0.0
 11
14340.84218342021
 21
1251.566427379842
 31
0.0
  0
LINE
  5
F9
100
AcDbEntity
  8
HEADLIGHTSTAND
100
AcDbLine
 10
14342.73968713086
 20
1317.566427379891
 30
0.0
 11
14342.73968713086
 21
1282.211088320551
 31
0.0
  0
LINE
  5
FA
100
AcDbEntity
  8
HEADLIGHTSTAND
100
AcDbLine
 10
14342.73968713086
 20
1317.566427379891
 30
0.0
 11
14338.74736255699
 21
1317.566427379891
 31
0.0
  0
LINE
  5
FB
100
AcDbEntity
  8
HEADLIGHTSTAND
100
AcDbLine
 10
14338.74736255699
 20
1317.566427379891
 30
0.0
 11
14334.66067205175
 21
1251.566427379843
 31
0.0
  0
LINE
  5
FC
100
AcDbEntity
  8
HEADLIGHTSTAND
100
AcDbLine
 10
14332.83255863339
 20
1222.042418782268
 30
0.0
 11
14328.84023405945
 21
1157.566427380015
 31
0.0
  0
LINE
  5
FD
100
AcDbEntity
  8
HEADLIGHTSTAND
100
AcDbLine
 10
14342.73968713086
 20
1317.566427379891
 30
0.0
 11
14338.65299662561
 21
1251.566427379842
 31
0.0
  0
LINE
  5
FE
100
AcDbEntity
  8
HEADLIGHTSTAND
100
AcDbLine
 10
14328.84023405945
 20
1157.566427380015
 30
0.0
 11
14328.84023405945
 21
1141.566427379121
 31
0.0
  0
LINE
  5
FF
100
AcDbEntity
  8
HEADLIGHTSTAND
100
AcDbLine
 10
14328.8402340595
 20
1157.566427380011
 30
0.0
 11
14332.83255863339
 21
1157.566427380012
 31
0.0
  0
LINE
  5
100
100
AcDbEntity
  8
HEADLIGHTSTAND
100
AcDbLine
 10
14392.71742724133
 20
1157.566427380022
 30
0.0
 11
14396.70975181519
 21
1157.56642738003
 31
0.0
  0
LINE
  5
101
100
AcDbEntity
  8
HEADLIGHTSTAND
100
AcDbLine
 10
14396.70975181519
 20
1157.56642738003
 30
0.0
 11
14396.70975181519
 21
1141.566427379118
 31
0.0
  0
LINE
  5
102
100
AcDbEntity
  8
HEADLIGHTSTAND
100
AcDbLine
 10
14337.74928141353
 20
1319.566427379679
 30
0.0
 11
14407.8626396686
 21
1319.566427379666
 31
0.0
  0
LINE
  5
103
100
AcDbEntity
  8
HEADLIGHTSTAND
100
AcDbLine
 10
14399.64197324707
 20
1169.566427379606
 30
0.0
 11
14407.8626396686
 21
1169.566427379607
 31
0.0
  0
LINE
  5
104
100
AcDbEntity
  8
HEADLIGHTSTAND
100
AcDbLine
 10
14337.74928141353
 20
1301.447429529735
 30
0.0
 11
14337.74928141354
 21
1319.566427379679
 31
0.0
  0
LINE
  5
105
100
AcDbEntity
  8
HEADLIGHTSTAND
100
AcDbLine
 10
14407.61496145617
 20
1169.566427379606
 30
0.0
 11
14407.61496145617
 21
1319.566427379666
 31
0.0
  0
LINE
  5
106
100
AcDbEntity
  8
HEADLIGHTSTAND
100
AcDbLine
 10
14407.8626396686
 20
1169.566427379606
 30
0.0
 11
14407.8626396686
 21
1319.566427379666
 31
0.0
  0
LWPOLYLINE
  5
107
100
AcDbEntity
  8
HEADLIGHTSTAND
100
AcDbPolyline
 90
       36
 70
     1
 43
0.0
 10
14382.68212143485
 20
1288.566427379929
 10
14382.53019899784
 20
1290.302909156599
 10
14382.07904770744
 20
1291.986628813186
 10
14381.34237556732
 20
1293.566427379929
 10
14380.34256598769
 20
1294.994303476795
 10
14379.10999767669
 20
1296.226871811119
 10
14377.68212159874
 20
1297.226681417774
 10
14376.10232304594
 20
1297.963353587789
 10
14374.41860339789
 20
1298.414504910052
 10
14372.68212162409
 20
1298.56642737993
 10
14370.94563984455
 20
1298.414504910052
 10
14369.26192017942
 20
1297.963353587789
 10
14367.68212159874
 20
1297.226681417774
 10
14366.25424548295
 20
1296.226871811119
 10
14365.0216771253
 20
1294.994303476795
 10
14364.02186749162
 20
1293.566427379929
 10
14363.28519529171
 20
1291.986628813186
 10
14362.83404393759
 20
1290.302909156599
 10
14362.68212143485
 20
1288.566427379929
 10
14362.83404387186
 20
1286.82994560326
 10
14363.28519516226
 20
1285.146225946673
 10
14364.02186730238
 20
1283.566427379929
 10
14365.02167688201
 20
1282.138551283064
 10
14366.25424519301
 20
1280.905982948739
 10
14367.68212127096
 20
1279.906173342085
 10
14369.26191982376
 20
1279.16950117207
 10
14370.94563947181
 20
1278.718349849807
 10
14372.68212124561
 20
1278.566427379929
 10
14374.41860302515
 20
1278.718349849807
 10
14376.10232269028
 20
1279.16950117207
 10
14377.68212127096
 20
1279.906173342085
 10
14379.10999738675
 20
1280.905982948739
 10
14380.3425657444
 20
1282.138551283064
 10
14381.34237537807
 20
1283.566427379929
 10
14382.07904757799
 20
1285.146225946673
 10
14382.53019893211
 20
1286.82994560326
  0
LINE
  5
108
100
AcDbEntity
  8
HEADLIGHTSTAND
100
AcDbLine
 10
14372.80596073211
 20
1298.555592861652
 30
0.0
 11
14371.19331805699
 21
1298.414504910052
 31
0.0
  0
LINE
  5
109
100
AcDbEntity
  8
HEADLIGHTSTAND
100
AcDbLine
 10
14371.19331805699
 20
1298.414504910052
 30
0.0
 11
14369.50959839186
 21
1297.963353587789
 31
0.0
  0
LINE
  5
10A
100
AcDbEntity
  8
HEADLIGHTSTAND
100
AcDbLine
 10
14369.50959839186
 20
1297.963353587789
 30
0.0
 11
14367.92979981118
 21
1297.226681417774
 31
0.0
  0
LINE
  5
10B
100
AcDbEntity
  8
HEADLIGHTSTAND
100
AcDbLine
 10
14367.92979981118
 20
1297.226681417774
 30
0.0
 11
14366.50192369539
 21
1296.22687181112
 31
0.0
  0
LINE
  5
10C
100
AcDbEntity
  8
HEADLIGHTSTAND
100
AcDbLine
 10
14366.50192369539
 20
1296.22687181112
 30
0.0
 11
14365.26935533774
 21
1294.994303476795
 31
0.0
  0
LINE
  5
10D
100
AcDbEntity
  8
HEADLIGHTSTAND
100
AcDbLine
 10
14365.26935533774
 20
1294.994303476795
 30
0.0
 11
14364.26954570406
 21
1293.56642737993
 31
0.0
  0
LINE
  5
10E
100
AcDbEntity
  8
HEADLIGHTSTAND
100
AcDbLine
 10
14364.26954570406
 20
1293.56642737993
 30
0.0
 11
14363.53287350415
 21
1291.986628813186
 31
0.0
  0
LINE
  5
10F
100
AcDbEntity
  8
HEADLIGHTSTAND
100
AcDbLine
 10
14363.53287350415
 20
1291.986628813186
 30
0.0
 11
14363.08172215002
 21
1290.302909156599
 31
0.0
  0
LINE
  5
110
100
AcDbEntity
  8
HEADLIGHTSTAND
100
AcDbLine
 10
14363.08172215002
 20
1290.302909156599
 30
0.0
 11
14362.92979964728
 21
1288.566427379929
 31
0.0
  0
LINE
  5
111
100
AcDbEntity
  8
HEADLIGHTSTAND
100
AcDbLine
 10
14362.92979964728
 20
1288.566427379929
 30
0.0
 11
14363.0817220843
 21
1286.82994560326
 31
0.0
  0
LINE
  5
112
100
AcDbEntity
  8
HEADLIGHTSTAND
100
AcDbLine
 10
14363.0817220843
 20
1286.82994560326
 30
0.0
 11
14363.5328733747
 21
1285.146225946673
 31
0.0
  0
LINE
  5
113
100
AcDbEntity
  8
HEADLIGHTSTAND
100
AcDbLine
 10
14363.5328733747
 20
1285.146225946673
 30
0.0
 11
14364.26954551482
 21
1283.566427379929
 31
0.0
  0
LINE
  5
114
100
AcDbEntity
  8
HEADLIGHTSTAND
100
AcDbLine
 10
14364.26954551482
 20
1283.566427379929
 30
0.0
 11
14365.26935509445
 21
1282.138551283064
 31
0.0
  0
LINE
  5
115
100
AcDbEntity
  8
HEADLIGHTSTAND
100
AcDbLine
 10
14365.26935509445
 20
1282.138551283064
 30
0.0
 11
14366.50192340545
 21
1280.905982948739
 31
0.0
  0
LINE
  5
116
100
AcDbEntity
  8
HEADLIGHTSTAND
100
AcDbLine
 10
14366.50192340545
 20
1280.905982948739
 30
0.0
 11
14367.9297994834
 21
1279.906173342085
 31
0.0
  0
LINE
  5
117
100
AcDbEntity
  8
HEADLIGHTSTAND
100
AcDbLine
 10
14367.9297994834
 20
1279.906173342085
 30
0.0
 11
14369.5095980362
 21
1279.16950117207
 31
0.0
  0
LINE
  5
118
100
AcDbEntity
  8
HEADLIGHTSTAND
100
AcDbLine
 10
14369.5095980362
 20
1279.16950117207
 30
0.0
 11
14371.19331768425
 21
1278.718349849807
 31
0.0
  0
LINE
  5
119
100
AcDbEntity
  8
HEADLIGHTSTAND
100
AcDbLine
 10
14371.19331768425
 20
1278.718349849807
 30
0.0
 11
14372.80596035389
 21
1278.577261897654
 31
0.0
  0
LINE
  5
11A
100
AcDbEntity
  8
ARMOUR
  6
CONTINUOUS
100
AcDbLine
 10
14292.11411798412
 20
1484.566427379632
 30
0.0
 11
14292.11411798412
 21
984.5664273796362
 31
0.0
  0
LINE
  5
11B
100
AcDbEntity
  8
ARMOUR
  6
CONTINUOUS
100
AcDbLine
 10
14452.63778172512
 20
1758.835500155995
 30
0.0
 11
14452.63778172512
 21
984.5664273796362
 31
0.0
  0
LINE
  5
11C
100
AcDbEntity
  8
ARMOUR
  6
CONTINUOUS
100
AcDbLine
 10
13982.55377478151
 20
1544.566427379647
 30
0.0
 11
14232.11411798412
 21
1544.566427379636
 31
0.0
  0
LINE
  5
11D
100
AcDbEntity
  8
ARMOUR
  6
CONTINUOUS
100
AcDbLine
 10
13662.5537747815
 20
1594.566427379636
 30
0.0
 11
13982.5537747815
 21
1594.566427379636
 31
0.0
  0
LINE
  5
11E
100
AcDbEntity
  8
ARMOUR
  6
CONTINUOUS
100
AcDbLine
 10
13662.5537747815
 20
1644.566427379636
 30
0.0
 11
13962.5537747815
 21
1644.566427379639
 31
0.0
  0
LINE
  5
11F
100
AcDbEntity
  8
ARMOUR
  6
CONTINUOUS
100
AcDbLine
 10
13982.5537747815
 20
1624.56642737964
 30
0.0
 11
13982.5537747815
 21
1544.566427379636
 31
0.0
  0
ARC
  5
120
100
AcDbEntity
  8
ARMOUR
  6
CONTINUOUS
100
AcDbCircle
 10
13962.5537747815
 20
1624.56642737964
 30
0.0
 40
20.0
100
AcDbArc
 50
0.0000000000001018
 51
90.00000000000007
  0
LINE
  5
121
100
AcDbEntity
  8
ARMOUR
  6
CONTINUOUS
100
AcDbLine
 10
14362.63778172512
 20
1659.566427379638
 30
0.0
 11
14162.63778172512
 21
1659.566427379638
 31
0.0
  0
ARC
  5
122
100
AcDbEntity
  8
ARMOUR
  6
CONTINUOUS
100
AcDbCircle
 10
14362.63778172512
 20
1624.566427379638
 30
0.0
 40
35.0
100
AcDbArc
 50
270.0
 51
90.00000000000007
  0
ARC
  5
123
100
AcDbEntity
  8
ARMOUR
  6
CONTINUOUS
100
AcDbCircle
 10
14162.63778172512
 20
1624.566427379638
 30
0.0
 40
35.0
100
AcDbArc
 50
90.00000000000005
 51
270.0
  0
LINE
  5
124
100
AcDbEntity
  8
ARMOUR
  6
CONTINUOUS
100
AcDbLine
 10
14162.63778172512
 20
1589.566427379637
 30
0.0
 11
14362.63778172512
 21
1589.566427379637
 31
0.0
  0
ARC
  5
125
100
AcDbEntity
  8
ARMOUR
  6
CONTINUOUS
100
AcDbCircle
 10
14232.11411798412
 20
1484.566427379632
 30
0.0
 40
60.0
100
AcDbArc
 50
0.0000000000000509
 51
90.00000000000005
  0
LINE
  5
126
100
AcDbEntity
  8
ARMOUR
  6
CONTINUOUS
100
AcDbLine
 10
14166.23024449523
 20
1654.566427379636
 30
0.0
 11
14355.47914265631
 21
1654.566427379636
 31
0.0
  0
LINE
  5
127
100
AcDbEntity
  8
ARMOUR
  6
CONTINUOUS
100
AcDbLine
 10
14166.23024449523
 20
1594.566427379636
 30
0.0
 11
14355.47914265631
 21
1594.566427379636
 31
0.0
  0
LINE
  5
128
100
AcDbEntity
  8
ARMOUR
  6
CONTINUOUS
100
AcDbLine
 10
14291.97812492774
 20
984.5664273796362
 30
0.0
 11
14615.59272170224
 21
984.5664273796362
 31
0.0
  0
LINE
  5
129
100
AcDbEntity
  8
ARMOUR
100
AcDbLine
 10
14110.83161458497
 20
375.5299313432311
 30
0.0
 11
13610.83161458846
 21
375.5299313432311
 31
0.0
  0
LINE
  5
12A
100
AcDbEntity
  8
ARMOUR
100
AcDbLine
 10
14110.83161458497
 20
234.019621509522
 30
0.0
 11
14110.83161458497
 21
810.7621806281379
 31
0.0
  0
LINE
  5
12B
100
AcDbEntity
  8
ARMOUR
100
AcDbLine
 10
14110.83161458497
 20
403.8345843029408
 30
0.0
 11
13456.43134649519
 21
403.8345843029408
 31
0.0
  0
LINE
  5
12C
100
AcDbEntity
  8
ARMOUR
100
AcDbLine
 10
13710.83161458497
 20
839.941219368665
 30
0.0
 11
13516.50743668048
 21
839.9412193686639
 31
0.0
  0
LINE
  5
12D
100
AcDbEntity
  8
ARMOUR
100
AcDbLine
 10
14110.83161458497
 20
298.2310276218457
 30
0.0
 11
13550.83161458496
 21
298.231027621846
 31
0.0
  0
LINE
  5
12E
100
AcDbEntity
  8
ARMOUR
100
AcDbLine
 10
14110.83161458497
 20
311.5279571502651
 30
0.0
 11
13610.83161458345
 21
311.5279571502653
 31
0.0
  0
LINE
  5
12F
100
AcDbEntity
  8
ARMOUR
100
AcDbLine
 10
13550.83161458495
 20
258.2033789538532
 30
0.0
 11
13550.83161458497
 21
365.1110406833353
 31
0.0
  0
LINE
  5
130
100
AcDbEntity
  8
ARMOUR
100
AcDbLine
 10
13710.83161458497
 20
839.941219368665
 30
0.0
 11
14110.83161458497
 21
810.7621806281379
 31
0.0
  0
LINE
  5
131
100
AcDbEntity
  8
ARMOUR
100
AcDbLine
 10
13550.83161458496
 20
322.2053531468155
 30
0.0
 11
13415.66542815517
 21
322.2053531468156
 31
0.0
  0
LINE
  5
132
100
AcDbEntity
  8
ARMOUR
100
AcDbLine
 10
13550.83161458496
 20
258.2033789538495
 30
0.0
 11
13495.34481078915
 21
258.2033789538495
 31
0.0
  0
LINE
  5
133
100
AcDbEntity
  8
ARMOUR
100
AcDbLine
 10
13610.83161458497
 20
375.5299313432311
 30
0.0
 11
13600.41272392495
 21
375.3716449829854
 31
0.0
  0
LINE
  5
134
100
AcDbEntity
  8
ARMOUR
100
AcDbLine
 10
13600.41272392495
 20
375.3716449829854
 30
0.0
 11
13590.31040598543
 21
374.9015953532075
 31
0.0
  0
LINE
  5
135
100
AcDbEntity
  8
ARMOUR
100
AcDbLine
 10
13590.31040598543
 20
374.9015953532075
 30
0.0
 11
13580.83161458497
 21
374.1340646740415
 31
0.0
  0
LINE
  5
136
100
AcDbEntity
  8
ARMOUR
100
AcDbLine
 10
13580.83161458497
 20
374.1340646740415
 30
0.0
 11
13572.26435800378
 21
373.0923739767848
 31
0.0
  0
LINE
  5
137
100
AcDbEntity
  8
ARMOUR
100
AcDbLine
 10
13572.26435800378
 20
373.0923739767848
 30
0.0
 11
13564.86894799783
 21
371.8081745061524
 31
0.0
  0
LINE
  5
138
100
AcDbEntity
  8
ARMOUR
100
AcDbLine
 10
13564.86894799783
 20
371.8081745061524
 30
0.0
 11
13558.87009035791
 21
370.3204860132234
 31
0.0
  0
LINE
  5
139
100
AcDbEntity
  8
ARMOUR
100
AcDbLine
 10
13558.87009035791
 20
370.3204860132234
 30
0.0
 11
13554.45005733782
 21
368.6745111600487
 31
0.0
  0
LINE
  5
13A
100
AcDbEntity
  8
ARMOUR
100
AcDbLine
 10
13554.45005733782
 20
368.6745111600487
 30
0.0
 11
13551.74314940424
 21
366.9202620596384
 31
0.0
  0
LINE
  5
13B
100
AcDbEntity
  8
ARMOUR
100
AcDbLine
 10
13551.74314940424
 20
366.9202620596384
 30
0.0
 11
13550.83161458497
 21
365.1110406832157
 31
0.0
  0
LINE
  5
13C
100
AcDbEntity
  8
ARMOUR
100
AcDbLine
 10
13610.83161458497
 20
311.5279571502651
 30
0.0
 11
13600.41272392495
 21
311.3696707900194
 31
0.0
  0
LINE
  5
13D
100
AcDbEntity
  8
ARMOUR
100
AcDbLine
 10
13600.41272392495
 20
311.3696707900194
 30
0.0
 11
13590.31040598543
 21
310.8996211602414
 31
0.0
  0
LINE
  5
13E
100
AcDbEntity
  8
ARMOUR
100
AcDbLine
 10
13590.31040598543
 20
310.8996211602414
 30
0.0
 11
13580.83161458497
 21
310.1320904810755
 31
0.0
  0
LINE
  5
13F
100
AcDbEntity
  8
ARMOUR
100
AcDbLine
 10
13580.83161458497
 20
310.1320904810755
 30
0.0
 11
13572.26435800378
 21
309.0903997838188
 31
0.0
  0
LINE
  5
140
100
AcDbEntity
  8
ARMOUR
100
AcDbLine
 10
13572.26435800378
 20
309.0903997838188
 30
0.0
 11
13564.86894799783
 21
307.8062003131865
 31
0.0
  0
LINE
  5
141
100
AcDbEntity
  8
ARMOUR
100
AcDbLine
 10
13564.86894799783
 20
307.8062003131865
 30
0.0
 11
13558.87009035791
 21
306.3185118202574
 31
0.0
  0
LINE
  5
142
100
AcDbEntity
  8
ARMOUR
100
AcDbLine
 10
13558.87009035791
 20
306.3185118202574
 30
0.0
 11
13554.45005733782
 21
304.6725369670827
 31
0.0
  0
LINE
  5
143
100
AcDbEntity
  8
ARMOUR
100
AcDbLine
 10
13554.45005733782
 20
304.6725369670827
 30
0.0
 11
13551.74314940424
 21
302.9182878666724
 31
0.0
  0
LINE
  5
144
100
AcDbEntity
  8
ARMOUR
100
AcDbLine
 10
13551.74314940424
 20
302.9182878666724
 30
0.0
 11
13550.83161458497
 21
301.1090664902498
 31
0.0
  0
TEXT
  5
145
100
AcDbEntity
  8
COMMENTS
100
AcDbText
 10
13827.18155039764
 20
1103.460335110302
 30
0.0
 40
31.4669714184132
  1
LOCATION
 41
0.6
  7
ARIAL
 11
13827.18155039764
 21
1103.460335110302
 31
0.0
100
AcDbText
 73
     1
  0
TEXT
  5
146
100
AcDbEntity
  8
COMMENTS
100
AcDbText
 10
13827.18155039764
 20
1056.259877982682
 30
-47.20045712761979
 40
31.4669714184132
  1
ON  HULL
 41
0.6
  7
ARIAL
 11
13827.18155039764
 21
1056.259877982682
 31
-47.20045712761979
100
AcDbText
 73
     1
  0
TEXT
  5
147
100
AcDbEntity
  8
COMMENTS
100
AcDbText
 10
12507.96214462078
 20
814.7956117467385
 30
0.0
 40
31.4669714184132
  1
THE STAND
 41
0.6
  7
ARIAL
 11
12507.96214462078
 21
814.7956117467385
 31
0.0
100
AcDbText
 73
     1
  0
TEXT
  5
148
100
AcDbEntity
  8
COMMENTS
100
AcDbText
 10
12629.68161615995
 20
1653.466178872056
 30
0.0
 40
19.99999999999999
  1
Drg version 1.0 / 23 Feb 2014
 41
0.6000000000000001
  7
ARIAL
 11
12629.68161615995
 21
1653.466178872056
 31
0.0
100
AcDbText
 73
     1
  0
ENDSEC
  0
SECTION
  2
OBJECTS
  0
DICTIONARY
  5
C
100
AcDbDictionary
  3
ACAD_GROUP
350
D
  3
ACAD_MLINESTYLE
350
1B
  3
ACDBVARIABLEDICTIONARY
350
1E
  0
DICTIONARY
  5
D
102
{ACAD_REACTORS
330
C
102
}
100
AcDbDictionary
  0
DICTIONARY
  5
1B
102
{ACAD_REACTORS
330
C
102
}
100
AcDbDictionary
  3
STANDARD
350
1C
  0
DICTIONARY
  5
1E
102
{ACAD_REACTORS
330
C
102
}
100
AcDbDictionary
  3
DIMADEC
350
1F
  0
MLINESTYLE
  5
1C
102
{ACAD_REACTORS
330
1B
102
}
100
AcDbMlineStyle
  2
STANDARD
 70
     0
  3

 62
   256
 51
90.0
 52
90.0
 71
     2
 49
0.5
 62
   256
  6
BYLAYER
 49
-0.5
 62
   256
  6
BYLAYER
  0
DICTIONARYVAR
  5
1F
102
{ACAD_REACTORS
330
1E
102
}
100
DictionaryVariables
280
     0
  1
-1
  0
ENDSEC
  0
EOF
